Song name
# A B C D E F G H I J K L M N O P Q R S T U V W X Y Z

Nicho Hinojosa - El Ultimo Trago tab

INTRODUCCIÓN:

   D     D#dim       Em  Em7             A     A7    D 
e|-2-----------5/2-2-------------0-----0-------0---------2/3-2-|
b|-3-3-------1---------------3-----3-----2-3-4---3-2-3---3---3-|
g|-2---2---2-------------------0-----0-----------------2-------|
d|-0-----1-----------2---2/4-------------------2-----0---------|
a|---------------------2-----------------0-2-3-----------------|
E|-------------------0-----------------------------------------|

   D          D#dim     Em   Em7
Tómate esta botella conmigo 
        A       A7        D
y en el último trago nos vamos,
       D           D#dim     Em  Em7
quiero ver a que sabe tu olvido,
        A        A7        D    A/D  
sin poner en mis ojos tus manos.
   
     D        D#dim     Em   Em7
Esta noche no voy a rogarte,
      A        A7       D
esta noche te vas de deveras;
       D       D#dim     Em   Em7
que difícil tener que dejarte
        A         A7         D     D7
sin pensar que tu ya no me quieras.

         G       D/F#    Em   Em7
Nada me han enseñado los años
         A            A7       D
siempre caigo en los mismos errores
      D       D#dim       Em    Em7
otra vez a brindar con extraños 
        A           A7       D
y a llorar por los mismos dolores.

   Em7         A/D
e|---------0-----2---2-|
b|-------3---3---3---3-|
g|-----0---------2---2-|
d|---2-----------2---2-|
a|-------------0---0---|
E|-0-------------------|

NOTA: A partir de este momento la canción es tocada con el ritmo ranchero,
      que como todos sabemos es tocando "el bajo primario y dos rasgueos,
      seguidos por el bajo secundario y otros dos rasgueos".

     D         D#dim    Em  Em7
Tómate esta botella conmigo
        A        A7      D
y en el último trago me besas,
     D            D#dim   Em   Em7
esperamos que no haya testigos,
         A       A7       D     A/D
por si acaso te diera vergüenza.

          D         D#dim    Em     Em7
Si algún día sin querer tropezamos,
        A          A7           D
no te agaches ni me hables de frente,
       D        D#dim    Em   Em7
simplemente la mano nos damos 
      A           A7      D     D7
y después que murmure la gente.

         G       D/F#    Em   Em7
Nada me han enseñado los años
         A            A7       D
siempre caigo en los mismos errores
      D       D#dim       Em    Em7
otra vez a brindar con extraños 
        A           A7       D     D7
y a llorar por los mismos dolores.

     G         D/F#     Em  Em7
Tómate esta botella conmigo
        A      (©)
y en el último trago nos vamos...

    (©)En donde puse el símbolo, va esto que les quise facilitar:

   A7          D      A7          D    A7 D
e|---------------2--2---------------2--0--2--2-|
b|---------------3--3---------------3--2--3--3-|
g|---------------2--2---------------2--2--2--2-|
d|-------------0----------------2-0-0--2--0--0-|
a|-0-0-2-2-4-4--------0-0-2-2-4----------------| 
E|---------------------------------------------|

TONOS USADOS:

   D  D#dim  Em  Em7  A  A7  A/D  D7  G  D/F#
e|-2----2-----0---0---0---0---2---2---3---2---|
b|-3----1-----0---3---2---2---3---1---3---3---|
g|-2----2-----0---0---2---0---2---2---0---2---|
d|-0----1-----2---2---2---2---2---0---0---×---|
a|-0----×-----2---2---0---0---0---0---2---×---|
E|-×----×-----0---0---0---0---×---×---3---2---|
Tap to rate this tab
# A B C D E F G H I J K L M N O P Q R S T U V W X Y Z