Song name
# A B C D E F G H I J K L M N O P Q R S T U V W X Y Z

Nicho Hinojosa - Dame Otra Oportunidad tab

tQmMmM rubi

Esta rola es de los enanillos verdez
y pues ahi se les va

  Do
---3------------5--7--8-7~------------5------------------5--77-7h8h7--14^p--14^p-|
---5---5--6--8---------------5--6--8----8--3----5--6--8--------------------------|
---5-----------------------------------------------------------------------------|
---5-----------------------------------------------------------------------------|
---3-----------------------------------------------------------------------------|
---3-----------------------------------------------------------------------------|

     Do          sol     lam    fa
dicen que el mejor consejo
        do    sol       lam     fa
es el que se da uno mismo
               do         sol           lam       fa
que nada es tan importante como un hombre decidido
                      do          sol                lam    fa
y yo no quiero esconder mi amor yo no quiero olvidarte


                          do sol              lam      fa
y se bien que los herrores siempre terminan por pagarse
                 do        sol              lam     fa
y es que acaso fue mi herror el demaciado protegerte
     do            sol         lam           fa
-------2---------------5-3-----------5--------------1--------------|
-----5----5---------3------3-------5----5---------1----1-----------|
---5--------5-----4--------------5--------5-----2--------2---------|
-5--------------5--------------7--------------3--------------------|
-------------------------------------------------------------------|
-------------------------------------------------------------------|
para que nadien te iriera, quenadien se metiera,
     do            sol         lam           fa
-------2---------------5-3-----------5--------------1--------------|
-----5----5---------3------3-------5----5---------1----1-----------|
---5--------5-----4--------------5--------5-----2--------2---------|
-5--------------5--------------7--------------3--------------------|
-------------------------------------------------------------------|
-------------------------------------------------------------------|
en tu vida, asi como asii


CORO
           do         sol     lam  fa
por eso dame otra oportunidad
           do         sol     lam  fa
por eso dame otra oportunidad
           do         sol     lam  fa
dame otra oportuidad

para saber almenos si amarte estubo mal

  Do
---3------------5--7--8-7~------------5------------------5--77-7h8h7--14^p--14^p~-|
---5---5--6--8---------------5--6--8----8--3----5--6--8---------------------------|
---5------------------------------------------------------------------------------|
---5------------------------------------------------------------------------------|
---3------------------------------------------------------------------------------|
---3------------------------------------------------------------------------------|

CORO
           do         sol     lam  fa
      dame otra oportunidad
           do         sol     lam  fa
      dame otra oportunidad
           do         sol     lam  fa
dame otra oportuidad

para saber almenos si amarte estubo mal

(luego va esto que namas adrona ese tramillo de la
rola como si fuera un solo, yo lo escribi crrido pero
lleva pausas.ponle un poco delay y ligara distorcion pa que se escuche bien)

----------------------------------------10----------------------------------|
----------------------------------10h12----13~----13-12-13-12-------10------|
----------------------------^7----------------------------------------------|
---9h10--10--9h10s-9--------------------------------------------------------|
----------------------------------------------------------------------------|
----------------------------------------------------------------------------|

--------------------------10h-12h-10----------------------------------------|
----------------------------------------------------------------------------|
---12~~----10-9-------------------------------------------------------------|
-----------------10-12------------------------------------------------------|
----------------------------------------------------------------------------|
----------------------------------------------------------------------------|
Tap to rate this tab
# A B C D E F G H I J K L M N O P Q R S T U V W X Y Z