Song name
# A B C D E F G H I J K L M N O P Q R S T U V W X Y Z

Nicho Hinojosa - Te Amo tab

Help us improve GuitareTab! Take a short survey!
Esta es una buenisima cancion como no se me ocurrio escribir algo igual antes jaja bueno 
la dedico a la persona mas especial en mi vida Rubí Te Amo eres la niña mas linda y 
q he conocido no se que haria si un dia te fueras de mi, eres mi princesa nunk lo olvides okiZz .

Atte. aLan (AnGeliTHo do0RmiLo0N)

Te AMo :

INTRO

e --2----2--------------0--2----2----2----------0--|
B ---------3--0-------0-----------3--0-------0-----|
G -----2---------1/2----------2---------1/2--------|
D --0---------2------------0---------2-------------|
A -------------------------------------------------|
E -------------------------------------------------|

e ----2--0-----------------------------|
B ---3-----3---2----0-----0-----0------|
G --2----------2------2-----2-----2----|
D -------------2--2-----2-----2-----2--|
A -------------------------------------|
E -------------------------------------|

Lo que sigue va mas o menos asi(se trata
de arpegear los acordes)de cualquier forma
tienen que escucharla bien para que saquen
los tiempos
    D                  E
e -----------2-----------------0--------|
B --------3-----3-----------------0-----|
G -----2-----------2------1/2--------2--|
D -0-------------------2----------------|
A --------------------------------------|
E --------------------------------------|
   Ay si nos hubieran visto

    D                  E
e -----------2------------------0------|
B --------3-----3------0-----0-----0---|
G -----2-----------2---1--1----------1-|
D -0-------------------2---------------|
A -------------------------------------|
E -------------------------------------|
  estábamos ahí sentados frente a frente

    D        E            F#m
e -------2---------0------2-----4—4--2-2----4-4--|
B -----3---------0--------2-----2-2--2-2----2-2--|
G ---2---------1---------------------------------|
D -0---------2------------4--4-------4-4--4------|
A -----------------------------------------------|
E -----------------------------------------------|
   no podía faltarnos la luna

(igual va arpegiado)
   D                   E
y hablábamos de todo un poco
   D              E            D        A
y todo nos causaba risa como dos tontos


D        E           F#m
e -------2---------0------2--4-x-4--—2-2---4-4-|
B -----3---------0--------2--2-x-2---2-2---2-2-|
G ---2---------1----------2--2-x-2---2-2---2-2-|
D -0---------2------------4--4-x-4---4-4---4-4-|
A ------------------------4--4-x-4---4-4---4-4-|
E ------------------------2--2-x-2---2-2---2-2-|
 y yo que no veía la hora v  ^   ^   v ^   v ^

     Bm7                      E
de tenerte en mis brazos y poderte decir.

   A                 D               E     A
Te amo, desde el primer momento en que te ví
         D        D/C#       Bm7               E Esus4 E
y hace tiempo te buscaba, y ya te imaginaba así
   A               D        E        A
te amo, aunque no es tan fácil de decir
     D            D/C#     Bm7           E  Esus4  E
y defino lo que siento con éstas palabras

    A        D          A			      Bm7     v
e -0-----0----2-----2----0------0-----2----2—2-----------2--5-----|
B -----2---2------3---3-------2---2--------3-3----------3---3-----|
G ---2----------2-----------2-----------2--------------2----2-----|
D ------------0-----------------------0---------------4-----4-----|
A -0---------------------0----------------------4--2--------2-----|
E ----------------------------------------------------------------|
  te amo    uhuh        te amo.              (esto va un poco rápido)

       D                    E
Y de pronto nos tocó el silencio
     D                 E            A
y nos miramos fijamente uno al otro

     D        E            F#m
e -2-2------0-0-0-----2----4—4-4------4---|
B -3-3------0-0-0-----2----2-2-2------2---|
G -2-2------1-1-1-----2---------------2---|
D -0-0------2-2-2-----4--4------------4---|
A -0-0------2-2-2-----4------------4--4---|
E --------------------2---------------2---|
   v ^      ^ v ^      v               v
   tus manos entre las mías

     D                   E
Tal vez nos volveremos a ver,
   D               E               D    A
mañana no sé si podré, qué estás jugando
e -2-2---------0-0-0--------2--4—4-4-4-4-4-4-4-----|
B -3-3---------0-0-0--------2--2-2-2-2-2-2-2-2-----|
G -2-2---------1-1-1--------2--2-2-2-2-2-2-2-2-----|
D -0-0---------2-2-2--------4--4-4-4-4-4-4-4-4-----|
A -0-0---------2-2-2--------4--4-4-4-4-4-4-4-4-----|
E --------------------------2--2-2-2-2-2-2-2-2-----|
   v ^         ^ v ^        v  ^ v ^  v ^ v v ^
Me muero si no te vuelvo a ver

Bm7                      E
ni tenerte en mis brazos y poderte decir

   A                 D              E     A
Te amo desde el primer momento en que te ví
         D         D/C#      Bm7             E  Esus4 E
y hace tiempo te buscaba, y ya te imaginaba así
   A               D        E        A
te amo, aunque no es tan fácil de decir
     D            D/C#     Bm7           E Esus4 E
y defino lo que siento con éstas palabras

(esto todavía no lo sacado muy bien)
   A          D	             A           D
e -0-----0----2------2------0-----0-----2-----------------2-----5-------|
B -----2---2-------3---3---------2--2------------------2h3--3---3-------|
G ---2-----------2-------------2----------------------4-------2-2-------|
D ------------0-------------------------0------------4----------4-------|
A -0------------------------0---------------4--2----2-----------2-------|
E ----------------------------------------------------------------------|
   te amo    uhuhuh         te amo uhuh oh                      v

e ---------------------2-----2---------2---------2--------------0------5---|
B -------------------3-----------------3---------3----------------0----5---|
G -----------------2-------2---2----2----2----2----2--------1h2-----1--6---|
D ---------------0----------------------------------------2------------7---|
A -----------------------4--------2---------0-----------2--------------7---|
E ----------------------------------------------------0----------------5---|
  te amo  uhuh oh  (esto también va un poco rápido)                    v


 !!!!!!! TE  Amo !!!!
Related for Te Amo tab