Song name
# A B C D E F G H I J K L M N O P Q R S T U V W X Y Z

Nicholas Hooper - When Ginny Kissed Harry tab

-------------------------------------------------------------------------------
			     When Ginny Kissed Harry - Nicholas Hooper
-------------------------------------------------------------------------------
Tabbed by: Joshua Smyth
Email: joshesmyth@hotmail.com

Tuning: Standard (EADGBe) Capo: None

Verse

e|--7--------7--------5--------5--------3--2--0--3--2--0---------------------|
B|-----8--0-----8--0-----7--0-----7--0--------------------0------------------|
G|---------------------------------------------------------------------------|
D|--------------------------------------------------------2--------2---------|
A|--------------------------------------------------------------2--------2---|
E|--0-----------------0-----------------0------------------------------------|
                                                                                 x2
e|--------0--2--0-----------0--3--2--0--3--2--0--3--2--0--7------------------|
B|--0--3-----------3--1--3-----------------------------------------0---------|
G|--------------------------------------------------------------0--------0---|
D|---------------------------------------------------------------------------|
A|--2-----------------3------------------------------------------------------|
E|--------------------------------------0-----------------0------------------|


Chorus

e|--3--0-----3--0-----3--0-----3--0-----3--2--0--3--2--0---------------------|
B|--------------------------1--------1--0-----------------0------------------|
G|--------2--------2-----------------------------------------------0---------|
D|---------------------------------------------------------------------------|
A|--0-----------------3-----------------------------------------2--------2---|
E|-----------------------------2--------0------------------------------------|

e|--3--0-----3--0-----3--0-----3--0-----3--2--0--3--2--0--7------------------|
B|--------------------------1--------1--0--------------------------0---------|
G|--------2--------2--------------------------------------------0--------0---|
D|---------------------------------------------------------------------------|
A|--0-----------------3------------------------------------------------------|
E|-----------------------------2--------0-----------------0------------------|

e|--3--0-----3--0-----3--0-----3--0-----3--2--0--3--2--0---------------------|
B|--------------------------1--------1--0-----------------0------------------|
G|--------2--------2--------------------------------------0------------------|
D|---------------------------------------------------------------------------|
A|--0-----------------3------------------------------------------------------|
E|-----------------------------2--------0------------------------------------|


Bridge

e|---------------------------------------------------------------------------|
B|-----------0--1--------------0--1------------------------------------------|
G|-----------0-----------------0--------2-----------------4------------------|
D|---------------------------------------------------------------------------|
A|--------2--------2--------2--------2---------------------------------------|
E|--0-----------------0------------------------------------------------------|

e|--------------------------------------|
B|--------------------------------------|
G|--5----------------7------------------|
D|--------------------------------------|
A|--------------------------------------|
E|--------------------------------------|


Verse 2

e|--7--------7--------5--------5--------3--2--0--3--2--0---------------------|
B|-----8--0-----8--0-----7--0-----7--0--------------------0--------0---------|
G|--------------------------------------------------------------0--------0---|
D|-(5)---------------(4)---------------(2)----------------2--------2-----0---|
A|--------------------------------------------------------------2------------|
E|--0-----------------0-----------------0------------------------------------|

e|--------0--2--0--------0--2--3--2--0--3--2--0--3--2--0--7------------------|
B|--0--3-----------3--1--------------------------------------------8---------|
G|---------------------------------------------------------------------------|
D|---------------------------------------------------------------------------|
A|--2-----------------3------------------------------------------------------|
E|--------------------------------------0------------------------------------|

e|--7--------7--------5--------5--------3--2-----3--2------------------------|
B|-----8--0-----8--0-----7--0-----7--0--------0--------0--0------------------|
G|---------------------------------------------------------------------------|
D|-(5)---------------(4)---------------(2)----------------2--------2---------|
A|--------------------------------------------------------------2--------2---|
E|--0-----------------0-----------------0------------------------------------|

e|--------0--2--0-----------0--3--2--0--3--2--0--3--2--0--7------------------|
B|--0--3-----------3--1--3---------------------------------------------------|
G|-----------------------------------------------------------------0---------|
D|--------------------------------------------------------------2--------2---|
A|--2-----------------3------------------------------------------------------|
E|--------------------------------------0------------------------------------|


Chorus 2

e|--3--0-----3--0-----3--0-----3--0-----3--2--0--3--2--0--7------------------|
B|--------------------------1-----------0-----------------5------------------|
G|--------2--------2-----------------2-----------------------------4---------|
D|---------------------------------------------------------------------------|
A|--0-----------------3------------------------------------------------------|
E|-----------------------------2--------0------------------------------------|

e|---------------------------------------------------------------------------|
B|--5-----------------5------------------------------------------------------|
G|--5-----------------7------------------------------------------------------|
D|---------------------------------------------------------------------------|
A|---------------------------------------------------------------------------|
E|---------------------------------------------------------------------------|

e|--3--0-----3--0-----3--0--0--3--0-----3--2--0--3--2--0---------------------|
B|--5--0--------------3--0--1--------1--0--------0--------0------------------|
G|--------2--------2---------------------------------------------------------|
D|-----------------------------------------------------------------2---------|
A|--0-----------------3-----------------------------------------2--------2---|
E|--------------------------------------0-----------------0------------------|

e|--3--0-----3--0-----3--0-----3--0-----0------------------------------------|
B|--------------------------1--------1---------------------------------------|
G|--------2--------2-----------------------------0--------0--------0---------|
D|-----------------------------0---------------------------------------------|
A|--0-----------------3-----------------------2--------2--------2--------2---|
E|---------------------------------------------------------------------------|

e|---------------------------------------------------------------------------|
B|---------------------------------------------------------------------------|
G|--2-----------------4------------------------------------------------------|
D|---------------------------------------------------------------------------|
A|---------------------------------------------------------------------------|
E|---------------------------------------------------------------------------|


Note:
 - The numbers in brackets are notes that can be played too (apart from I couldn't, but 
I put them there anyway)

Enjoy :)
Tap to rate this tab
 
# A B C D E F G H I J K L M N O P Q R S T U V W X Y Z