Song name
# A B C D E F G H I J K L M N O P Q R S T U V W X Y Z

Nick 13 - In The Orchard 2011 tab

<>Capo 2nd fret<>


Intro

E|-----7--5--2/3/2--0-----------|-----7--5--2/3/2--0----------|
B|--3------------------3--0--3--|--3--------------------------|
G|------------------------------|-----------------------------|
D|------------------------------|-----------------------------|
A|------------------------------|-----------------------------|
E|------------------------------|-----------------------------|

Solo is the same as intro.

Ending
E|-----7--5--2/3\2--0-----------|-----7--5--2/3/2--0-----------|
B|--3------------------3--0--3--|--3---------------------------|
G|------------------------------|------------------------------|
D|------------------------------|------------------------------|
A|------------------------------|------------------------------|
E|------------------------------|------------------------------|
                                                            
E|------------------------------|--3--2------------------------|
B|--0--1--5\3-------------------|--------5--3--5--3--0--3--0---|
G|------------------------------|------------------------------|
D|------------------------------|------------------------------|
A|------------------------------|------------------------------|
E|------------------------------|------------------------------|

He uses lots of vibrato in the ending, so you have to listen and try to add some vibrato on your own.
Tap to rate this tab
 
# A B C D E F G H I J K L M N O P Q R S T U V W X Y Z