Song name
# A B C D E F G H I J K L M N O P Q R S T U V W X Y Z

Nick Allen - Drool Monkey tab

-------------------------------------------------------------------------------
			     Drool Monkey - Nick Allen
-------------------------------------------------------------------------------
Tabbed by: Nick Allen
Email: nellakcin@mchsi.com

Tuning:Standard

INTRO (x2)
Guitar 1
e|----------------------|
B|-33----33----33----33-|
G|-22----00----00----00-|
D|-00----22----00----22-|
A|-------00----22-------|
E|----------------------|

Guitar 2
e|--------------------------|
B|---3p2---3p2---3p2----0h3-|
G|------2-----2-----2--2----|
D|--------------------------|
A|--------------------------|
E|--------------------------|

VERSE (x4)
e|------------------------|
B|-33----33----3333333333-|
G|-22----00----0000000000-|
D|-00----22----0000000000-|
A|-------00----2222222222-|
E|------------------------|

PRE-CHORUS (x1)
e|----------|
B|-3~3~3~3~-|
G|-0~0~0~0~-|
D|-0~0~0~0~-|
A|-2~2~2~2~-|
E|----------|

CHORUS (x4)
e|----------------------|
B|-33----33----33----33-|
G|-22----00----00----00-|
D|-00----22----00----00-|
A|-------00----22----22-|
E|----------------------|

INTRO (x2)
VERSE (x4)
PRE-CHORUS (x1)
CHORUS (x8)
INTRO (x4)
END
e|---|
B|---|
G|---|
D|---|
A|-0-|
E|---|

LYRICS:
You're playing bass in a punk rock band
You meet a girl it's a one night stand
You flirt with her and she holds your hand
Sinking in the floor like it's quick sand

Drool money, what do you do?
Do you let her stay and make out with you?
She'll go for, another member of your crew
You may love her, but she doesn't love you

You see another girl at the mall
Looks like she's crying up against the wall
You better catch her she's gonna fall
You get her number you decide to call

Drool monkey, what do you do?
Do you let her stay and make out with you?
She'll go for another member your crew
You may love her, but she doesn't love

Drool monkey, what do you do?
Do you let her stay and make out with you?
She'll go for another member your crew
You may love her, but she doesn't love you

(No she doesn't love you)
(No she doesn't love you)
(No she doesn't love you)
(No she doesn't love you)

| /  slide up
| \  slide down
| h  hammer-on
| p  pull-off
| ~  vibrato
| +  harmonic
| x  Mute note
===============================================================================
Tap to rate this tab
 
# A B C D E F G H I J K L M N O P Q R S T U V W X Y Z