Song name
# A B C D E F G H I J K L M N O P Q R S T U V W X Y Z

Nick Cave And The Bad Seeds - God Is In The House tab

-------------------------------------------------------------------------------
			     God Is In The House Intro - Nick Cave & The Bad Seeds
-------------------------------------------------------------------------------
Tabbed by: Frederik Hasager
Email: hasager@gmail.com

Tuning: Standard

Great song, great intro. I included the bass tones, just to get a picture of the 
musical progression.
The chord progression goes like this: C - F - Dm - G - C

e|------------------------------------5----------------3---------------------------|
B|-----5-6-5-3-5------------------3-5---6----(5)-(6)---6---6-5-6------(5)-(3)------|
G|--------------------(5)-(5)----5-------------------------------------------------|
D|------------------------------------------------------------------------- -------|
A|------------(3)-----------------------(8)-or-----------------(5)-----------------|
E|------------------------------------- (1)------------------------------(3)-------|

e|------------------------------------------------------------------------------|
B|-------3-5--------------------------------------------------------------------|
G|---4-5-----5------------------------------------------------------------------|
D|------------------------------------------------------------------------------|
A|-----------(3)----------------------------------------------------------------|
E|------------------------------------------------------------------------------|
Tap to rate this tab
 
# A B C D E F G H I J K L M N O P Q R S T U V W X Y Z