Song name
# A B C D E F G H I J K L M N O P Q R S T U V W X Y Z

Nick Cave - What Must Be Done tab

                         Nick Drake & Warren Ellis
                            "What must be done"
    "The Assassination of Jesse James by the Coward Robert Ford"


00:00
E:-0--0---3--0----------1--1-----0--0-----3--3------------------1---|
B:-1------1------3--3------------1--1-----1--1-----(0)-3--------3---|
G:-2-------------0------2--2-----2----2---0---------4--------2------|
D:----------------------0-------------------------0--------0--------|
A:-0------3----------------------0----0-----------------------------|
D:---------------5------------------------------5-------------------|


00:20
E:---0---0-----3--3--3----------------------------------------------|
B:---1---1-----1--1--1-----------3----------------------------------|
G:---2---2-----0-------------4---------0---2------------------------|
D:-----2---2--------------0----0-----0---0---2----------------------|
A:-0----------------------------------------------------------------|
D:----------------------5----------0--------------------------------|

  	

00:30
E:-----0---0-------3--3--3----------------3---1---0-----------------|
B:-----1---1-------1--1--------------3----3---3---3-----------------|
G:---2------(2)----0-------------4---4------0---0---0---------------|
D:-----------------------------0---0---0----------------------------|
A:-0-----0---0------------------------------------------------------|
D:--------------------------5---------------------------------------|


00:38
E:-0------------3--3------------------------------------------------|
B:-1---1--------1--1----------------3-------------------------------|
G:-2-----2------0---------------4-----------0----2------------------|
D:--------(0)-----------------0---0---0---0---0----2----------------|
A:---0--------------------------------------------------------------|
D:-------------------------5------------0---------------------------|


00:48
E:(0)---0---0----3---3---3-----------------3---1---0----------------|
B:(1)---1---1----5---5---5-------------3---3---3---3----------------|
G:(2)---2---2------5---5---5-------4---4-----0---0---0--------------|
D:--(2)---2---2------------------0---0---0--------------------------|
A:-0----------------------------------------------------------------|
D:-----------------------------5------------------------------------|


00:56
E:-0-------0----3---0-----0-----------------------------------------|
B:-1---1---1----1---1---1--------------3----------------------------|
G:-2-------2------0---0------------4---4---------0---2--------------|
D:---2---2---2-------------------0---0---0-----0---0---2------------|
A:-0----------------------------------------------------------------|
D:----------------------------5--------------0----------------------|

  	

01:05
E:-0-------0----3-0---0------------------3---1---0------------------|
B:-1---1---1----1---1---1-----------3----1---1---1------------------|
G:-2-------2----0---------------4---4------0---0---0----------------|
D:-------2---2----------------0---0---0-----------------------------|
A:-0----------------------------------------------------------------|
D:-------------------------5----------------------------------------|


01:14
E:-0---0---0---3--3---3---------------------------------------------|
B:-1---1---1---5--5---5---------------3-----------------------------|
G:-2-------2---5----5---5---------4----------0---2------------------|
D:---2---2----------------------0---0------0---0---2----------------|
A:-0----------------------------------------------------------------|
D:----------------------------5----------0--------------------------|


01:23
E:-0--0--0----3--3--3---------------------3---1---0-----------------|
B:-1--1--1----1--1-------------------3----1---1---1-----------------|
G:-2--2--2----0------------------4----------0---0---0---------------|
D:---------2-------------------0---0---0----------------------------|
A:-0----------------------------------------------------------------|
D:---------------------------5--------------------------------------|


01:31
E:-0-------0---------------------------------------0----------------|
B:-1---1-----1------1-----1----------3--------3----1----------------|
G:-2-----2--------0-----0--------0---0----2--------2----------------|
D:---2----------2-----2--------0---0---------------2----------------|
A:-0-----------------------------------------------0----------------|
D:---------------------------5--------------------------------------|

  	

Tap to rate this tab
# A B C D E F G H I J K L M N O P Q R S T U V W X Y Z