Song name
# A B C D E F G H I J K L M N O P Q R S T U V W X Y Z

Nick Drake - From The Morning tab

Tuning (bottom first) BEBEBE capo 1st fret


Intro 
     
|----------------|--------0-------|----------------|----------------| 
|--------0-------|---------0------|-------0--------|--------0-------| 
|--0----------0--|--0----------0--|--0--------0---0|--0----------0--| 
|-----4-----4---4|-----5-----5---5|-----4---4---4--|-----5-----5---5| 
|--2---2---2---2-|--4---4---4---4-|--2---2---2---2-|--4---4---4---4-| 
|0---0---0---0---|0---0---0---0---|0---0---0---0---|0---0---0---0---|
     
(slide up from x24xxx to x45xxx - the slide adds extra 
unplucked notes)
     
Main Verse Pattern:
     
|----------------|-------(0)------| (the notes in brackets occur 
|--------0-------|--------0-(0)---| now and again, replacing 
|--0----------0--|--0----------0--| the notes directly below 
|-----4-----4---4|-----5-----5---5| them on the tab) 
|--2---2---2---2-|--4---4---4---4-|
|0---0---0---0---|0---0---0---0---|
     
(slide as before)
     
Last Line Of Verse:
     
|----------------|0---------------|
|--------0-------|--------0-------|
|--0----------0--|-----0-------0--|
|-----2-----2----|---2-------2----|
|--2---2---2---2-|--2---2---2---2-|
|2---2---2---2---|2---2---2---2---|
     
Variation (occurs in 1st line of middle instr, 1st and 3rd of end):
     
|----------------|-----0----------|
|--------0-------|----------------|
|--0----------0--|-0-------0---0--|
|-----4-----4---4|---5---5---5---5|
|--2---2---2---2-|--4---4---4---3-|
|0---0---0---0---|0---0---0---0---|
     
Last Line:
     
|----------------|----------------|----------------|---
|--------0-------|-------0--------|---0---------0--|---
|--0----------0--|-----0-----0---0|-----0---0-----0|---   (slowing down) 
|-----4-----4---4|--5------5---5--|-4-----4---4----|--4
|--2---2---2---2-|--4---4---3---3-|--2---2---2---2-|---
|0---0---0---0---|0---0---0---0---|0---0---0---0---|0--
Tap to rate this tab
 
# A B C D E F G H I J K L M N O P Q R S T U V W X Y Z