Song name
# A B C D E F G H I J K L M N O P Q R S T U V W X Y Z

Nick Drake - The Thoughts Of Mary Jane tab

The Thoughts Of Mary Jane
Fire Leaves Left Version
Tuning EADF#BE 
Capo 5 or 6

|------0----0----|-----0-0------0-|
|---2----2---2---|---3--3----0----|
|--0-0-----0--0--|--0-0---0-0-2---|
|-2---2-2-2----2-|-0-------0---0-0| x2
|0--0--0-0--0---0|2--2--2-------2-|
|----------------|--------0---0---|


Who can know
The thoughts of Mary jane
Why she flies
Or goes out in the rain
|------0----0----|------0-------0-|
|---2----2---2---|---3-------0----|
|--0-0-----0--0--|--0-0-----0-2---|
|-2---2-2-2----2-|-0---0-0-0---0-0|x2
|0--0--0-0--0---0|2--2--2-------2-|
|----------------|--------0---0---|

Where she's been
And who she's seen
In her journey
 to the stars.
|-----------0----|-----------0----|-------------2--|--------------0-|
|---2----2---2---|---2----2---2---|---2-------0--0-|---3-------0----|
|--2-2-----2--2--|--0-0-----0--0--|--0-0-----0-0---|--0-0-----0-2---|
|-2---2-2-2----2-|-2---2-2-2----2-|-1---1-1-1-----1|-0---0-0-0---0-0|
|0--0--0-0------0|0--0--0-0------0|0--0--0-0--0--0-|2--2--2-------2-|
|----------------|----------------|----------------|--------0---0---|

|------0----0----|-----0-0------0-|
|---2----2---2---|---3--3----0----|
|--0-0-----0--0--|--0-0---0-0-2---|
|-2---2-2-2----2-|-0-------0---0-0| x1
|0--0--0-0--0---0|2--2--2-------2-|
|----------------|--------0---0---|

Who can know
The reasons for her smile
What are her dreams
When they've journeyed for a mile
|------0----0----|------0-------0-|
|---2----2---2---|---3-------0----|
|--0-0-----0--0--|--0-0-----0-2---|
|-2---2-2-2----2-|-0---0-0-0---0-0| x2
|0--0--0-0--0---0|2--2--2-------2-|
|----------------|--------0---0---|

The way she sings
And her brightly coloured rings
Make her the princess of the sky.
|-----------0----|-----------0----|-------------2--|--------------0-|
|---2----2---2---|---2----2---2---|---2-------0--0-|---3-------0----|
|--2-2-----2--2--|--0-0-----0--0--|--0-0-----0-0---|--0-0-----0-2---|
|-2---2-2-2----2-|-2---2-2-2----2-|-1---1-1-1-----1|-0---0-0-0---0-0|
|0--0--0-0------0|0--0--0-0------0|0--0--0-0--0--0-|2--2--2-------2-|
|----------------|----------------|----------------|--------0---0---|

|------0--||------0--|
|---2-----||---0-----|
|--0-0----||--1-1----|  
|-2---2-2-||-2---2-2-|x2
|0--0--0--||0--0--0--|
|---------||---------|

Who can know
What happens in her mind
Did she come from a strange world
And leave her mind behind
|------0----0----|------0-------0-|
|---2----2---2---|---3-------0----|
|--0-0-----0--0--|--0-0-----0-2---|
|-2---2-2-2----2-|-0---0-0-0---0-0| x2
|0--0--0-0--0---0|2--2--2-------2-|
|----------------|--------0---0---|

Her long lost sighs
And her brightly coloured eyes
Tell her story
 to the wind.
|-----------0----|-----------0----|-------------2--|--------------0-|
|---2----2---2---|---2----2---2---|---2-------0--0-|---3-------0----|
|--2-2-----2--2--|--0-0-----0--0--|--0-0-----0-0---|--0-0-----0-2---|
|-2---2-2-2----2-|-2---2-2-2----2-|-1---1-1-1-----1|-0---0-0-0---0-0|
|0--0--0-0------0|0--0--0-0------0|0--0--0-0--0--0-|2--2--2-------2-|
|----------------|----------------|----------------|--------0---0---|

|------0----0----|-----0-0------0-|
|---2----2---2---|---3--3----0----|
|--0-0-----0--0--|--0-0---0-0-2---|
|-2---2-2-2----2-|-0-------0---0-0| x1
|0--0--0-0--0---0|2--2--2-------2-|
|----------------|--------0---0---|

Who can know 
The thoughts of Mary Jane
Why she flies
Or goes out in the rain
|------0----0----|------0-------0-|
|---2----2---2---|---3-------0----|
|--0-0-----0--0--|--0-0-----0-2---|
|-2---2-2-2----2-|-0---0-0-0---0-0| x2
|0--0--0-0--0---0|2--2--2-------2-|
|----------------|--------0---0---|

Where she's been
And who she's seen
In her journey
 to the stars.
|-----------0----|-----------0----|-------------2--|--------------0-|
|---2----2---2---|---2----2---2---|---2-------0--0-|---3-------0----|
|--2-2-----2--2--|--0-0-----0--0--|--0-0-----0-0---|--0-0-----0-2---|
|-2---2-2-2----2-|-2---2-2-2----2-|-1---1-1-1-----1|-0---0-0-0---0-0|
|0--0--0-0------0|0--0--0-0------0|0--0--0-0--0--0-|2--2--2-------2-|
|----------------|----------------|----------------|--------0---0---|

|------0--||------0--|
|---2-----||---0-----|
|--0-0----||--1-1----|  
|-2---2-2-||-2---2-2-|x2
|0--0--0--||0--0--0--|
|---------||---------|


|----------------|----------------|
|--2--2--2-------|--0--0--0-------|
|--0--0--0-------|--1--1--1-------|
|--2--2--2--2-2-2|--2--2--2--2-2-2|x6 (Fades out)
|0-0-0-0-0-0-0-0-|0-0-0-0-0-0-0-0-|
|----------------|----------------|
Tap to rate this tab
 
# A B C D E F G H I J K L M N O P Q R S T U V W X Y Z