Song name
# A B C D E F G H I J K L M N O P Q R S T U V W X Y Z

Nick Drake - At The Chime Of A City Clock tab

nick drake - at the chime of a city clock

Tuning: EADGBE*  
maybe a capo on this one?
play the cd...

main riff
          C/G            B/Gb          Bb/F          A/E    rpt         
e|-------------------------------------------------------------|
B|--------8-8-8----------7-7-7---------6-6-6---------5-5-5-----|
G|--------5-5-5----------4-4-4---------3-3-3---------2-2-2-----|
D|--------5-5-5----------4-4-4---------3-3-3---------2-2-2-----|
A|-----0-0---0-------0-0----0------0-0----0------0-0----0------|
E|-------------------------------------------------------------|

pre-chorus
         C/G          Am/F           C/G         Bm7    E    x2         
e|-------------------------------------------------------------|
B|-------1--1--1------1--1--1--------1--1--1-----3-3-0--0------|
G|-------0--0--0------2--2--2--------0--0--0-----2-2-0--1------|
D|-------2-----2------2-----2--------2-----2-----4-4-0--2------|
A|-------3-----3------0-----0--------3-----3-----2-2----2------|
E|----3-3----3-----1-1----1-------3-3----3--------------0------|

chorus
         A             A/Ab          A/G           A/Gb     rpt   
e|-------------------------------------------------------------|
B|-----------5---5---------5---5---------5---5---------5---5---|
G|--------6---6-6-------6---6-6-------6---6-6-------6---6-6----|
D|-------7-7---7-------6-6---6-------5-5---5-------4-4---4-----|
A|----0-0-----------0-0-----------0-0-----------0-0------------|
E|-------------------------------------------------------------|

* just feep pumpin the pedal (doubled) bass note..

* theres also deadened string chops between the chords, you'll
get it down by jammin to the track..

cant find the book, so chord names probably wrong,
will maybe update it at some point,

but anyways, this is more or less it...

thats all folks!!


Tap to rate this tab
# A B C D E F G H I J K L M N O P Q R S T U V W X Y Z