Song name
# A B C D E F G H I J K L M N O P Q R S T U V W X Y Z

Nick Drake - Horn tab

"Horn" by Nick Drake
Tabbed by: Mike Warfield

Tune down 1/2 step

E--------------------9-10--------------------------|
B---------------------------10-----8-7---10--------|
G--------------------------------------------------|
D--0-0-0-0-0-0-0-0-0------0------0-----0-----------|
A--------------------------------------------------|
E--------------------------------------------------|

E----9-10------------------------------------------|
B-----------10-----8-7---10-----8-7----------------|
G-------------------------------------7------------|
D--0------0------0-----0------0-----0--------------|
A--------------------------------------------------|
E--------------------------------------------------|

E--------------------------------------------------|
B----------------------------h---------------------|
G----6-7---------6-7-------6-^-7-------------------|
D--0-------7---0-------7---0-----------------------|
A--------5-----------5-----------------------------|
E--------------------------------------------------|

E----9-10-----------------------9-10---------------|
B-----------10-----8-7---10------------10----------|
G--------------------------------------------------|
D--0------0------0-----0------0------0-------------|
A--------------------------------------------------|
E--------------------------------------------------|

E--------------------------------------------------|
B----8-7---10----8-7-------h-----------------------|
G--------------------7---6-^-7---------------------|
D--0-----0-----0---------0-------------------------|
A--------------------------------------------------|
E--------------------------------------------------|
Tap to rate this tab
 
# A B C D E F G H I J K L M N O P Q R S T U V W X Y Z