Song name
# A B C D E F G H I J K L M N O P Q R S T U V W X Y Z

Nick Drake - Pink Moon tab

Pink Moon 

Nick Drake

Tuning;Standard

This one is for mhairi, the one who holds the key to my heart.

INTRO
e|--2--2--2-2--0-0-0-0-------0h2-2-2-2--------------|
B|--3--3--3-3--3-3-3-3-------3---3-3-3--------------|
G|--2--2--2-2--2-2-2-2-x3----2---2-2-2--------------|
D|--0--0--0-0--0-0-0-0-------0---0-0-0--------------|
A|--------------------------------------------------|
E|--------------------------------------------------|

VERSE
 I saw it written and I saw it say.  
e|--7---5---7---5-----------------------------------|
B|--5---5---5---5-----------------------------------|
G|--6---6---6---6-----------------------------------|
D|--x---7---x---7-----------------------------------|
A|--7---7---7---7-----------------------------------|
E|--5---5---5---5-----------------------------------|

 Pink moon is on its way.
e|--5---3---5---3-----------------------------------|
B|--3---3---3---3-----------------------------------|
G|--4---4---4---4-----------------------------------|
D|--x---5---x---5-----------------------------------|
A|--5---5---5---5-----------------------------------|
E|--3---3---3---3-----------------------------------|

  And none of you stand so tall
e|--7---5---7---5-----------------------------------|
B|--5---5---5---5-----------------------------------|
G|--6---6---6---6-----------------------------------|
D|--x---7---x---7-----------------------------------|
A|--7---7---7---7-----------------------------------|
E|--5---5---5---5-----------------------------------|

 Pink moon gonna get you all
e|--5---3---5---3-----------------------------------|
B|--3---3---3---3-----------------------------------|
G|--4---4---4---4-----------------------------------|
D|--x---5---x---5-----------------------------------|
A|--5---5---5---5-----------------------------------|
E|--3---3---3---3-----------------------------------|

CHORUS
 It's a pink moon
e|--2--2--2-2--0-0-0-0------------------------------|
B|--3--3--3-3--3-3-3-3------------------------------|
G|--2--2--2-2--2-2-2-2------------------------------| x2
D|--0--0--0-0--0-0-0-0------------------------------|
A|--------------------------------------------------|
E|--------------------------------------------------|

 It's a pink, pink, pink, pink, pink moon.
e|--0-----------------------------------------------|
B|--0-----------------------------------------------|
G|--0-----------------------------------------------|
D|--2-----------------------------------------------| x2
A|--2-----------------------------------------------|
E|--0-----------------------------------------------|

e|--2--2--2-2--0-0-0-0------------------------------|
B|--3--3--3-3--3-3-3-3------------------------------|
G|--2--2--2-2--2-2-2-2------------------------------| x2
D|--0--0--0-0--0-0-0-0------------------------------|
A|--------------------------------------------------|
E|--------------------------------------------------|

 It's a pink, pink, pink, pink, pink moon.
e|--0-----------------------------------------------|
B|--0-----------------------------------------------|
G|--0-----------------------------------------------|
D|--2-----------------------------------------------| x2
A|--2-----------------------------------------------|
E|--0-----------------------------------------------|
Tap to rate this tab
# A B C D E F G H I J K L M N O P Q R S T U V W X Y Z