Song name
# A B C D E F G H I J K L M N O P Q R S T U V W X Y Z

Nick Drake - Parasite tab

This is a standard tuning version. The original is CGCFCE but they sound alike to 
me. No capo either.
Just hold the Em7 chord shape, and go from D to B on the B string. Here:

Do this for the verses
E-----0---5---0---|
B-3---------------|
G--0---0---0---0--|
D---2---2---2---2-|
A---------2-------|
E-0---0-------0---|


E-----0---5---0---|
B-2---------------|
G--0---0---0---0--|
D---2---2---2---2-|
A---------2-------|
E-0---0-------0---|


E-----0---5---0---|
B-1---------------|
G--0---0---0---0--|
D---2---2---2---2-|
A---------2-------|
E-0---0-------0---|


E--------6p5--0---| (2x)
B-----0-----------|
G-2h4-4-----------|
D-----------------|
A-----------------|
E-0--0--0-----0---|

and this for the chorus:
E-----0--------0----|
B-1--------1--------|
G--1-----1--1-------|
D-------------------|
A-3--3--3--3--3-----|
E-------------------|

E--------6p5--0---| (2x)
B-----0-----------|
G-2h4-4-----------|
D-----------------|
A-----------------|
E-0--0--0-----0---|
Tap to rate this tab
# A B C D E F G H I J K L M N O P Q R S T U V W X Y Z