Song name
# A B C D E F G H I J K L M N O P Q R S T U V W X Y Z

Nick Drake - Northern Sky chords

Highlighted       Show chord diagrams
-------------------------------------------------------------------------------
                             Northern Sky - Nick Drake
-------------------------------------------------------------------------------

Tabbed By: Todd Hampson 
(based on various other tabs  - thank you, complete song in standard tuning, 
slight variations in chords that sound right to me. 
intros, middle with accompanying rhythm and all bars accounted for.)
Email: todd@hampson.net.au

Tuning: Standard

Intro
*T                                      *VC
D (Fill 1) Em9 (Fill 2) D (Fill 1) Em9 (Fill 2) D  Em9 D Em9  

Fill 1            Fill 2
e|-------2---|  e|-------0------|
B|-----3-----|  B|---------3----|
G|---2-------|  G|-----0--------|
D|-0---------|  D|---2----------|
A|-----------|  A|-2------------|
E|-----------|  E|--------------|

(D)I never felt magic C(Em7)razy as this 
(D)I never saw moons near the m(Em7)eaning of the sea 
(D)I never held the motion in the p(Em7)alm of my hand 
(D)Or felt sweet breezes in the t(Em7)op of the tree 
But now you're H(Asus4)ere(A), brighten my(C) nort(G)hern sk(D)y Em7 D Em7 

(D)Been a long time that I'm wa(Em7)iting 
(D)Been a long time that I've bl(Em7)own 
(D)Been a long time that I've wo(Em7)ndered 
(D)Through the people I have kn(Em9)own 
Oh if you w(Asus4)ould and you could (A)straighten my (C)new m(G)ind's E(D)ye 

(Piano over chords)
D Em7 D Em7 D Em7 D Em7 A7sus4 D 

MIDDLE PART: 
Guitar          D            C G A        C G Asus4 
E -------------------------------------------------| 
D --------------0---------------------0-------2----| 
G -6-7-2-0-2-2--2(3 times)-----0-2----2-----0-2----| 
D -----4-----0--0------------2-0-2h4--4---2-0-2----| 
A --------------0------------3--------0---3---0----| 
E -------------------------------------------------| 

(D)Would you love me (Em7) for my money 
(D)Would you love me (Em7) for my head 
(D)Would you love me through the (Em7)winter 
(D)Would you love me (Em7) till I'm dead 
Oh if you w(Asus4)ould and you C(A)ould come grow your (C)home (G)on (D)high 

(D)I never felt magic C(Em7)razy as this 
(D)I never saw moons near the m(Em7)eaning of the sea 
(D)I never held the motion in the p(Em7)alm of my hand 
(D)Or felt sweet breezes in the t(Em7)op of the tree 
But now you're H(Asus4)ere(A), brighten my(C) nort(G)hern sk(D)y Em7 D Em7 

            (Fade)
D Em7 D Em7 D Em7 D Em7 A7sus4 D




************************************

| *T  single Guitar
| *VC bass and other instruments join in

************************************
Tap to rate this tab
 
# A B C D E F G H I J K L M N O P Q R S T U V W X Y Z