Song name
# A B C D E F G H I J K L M N O P Q R S T U V W X Y Z

Nick Drake - Place To Be tab

                                  ~~~~~~~~~~~~~~~~~~~~~~~~~~~~~~~~~~~~~~~~
                                         Place to Be (Home Recording)   
                                                Nick Drake
                                           Tanworth-in-Arden II
                                  ~~~~~~~~~~~~~~~~~~~~~~~~~~~~~~~~~~~~~~~~

Tabbed by: Connor O.
Tuning: Open C (4th string lowered a whole step)
Capo: 6th fret (F# C# F# B F# A#)



Without a capo it's (C G C F C E). So basically Open C with the 4th string 
lowered a whole step from G down to F. So tune to that and then attach
your capo on the 6th fret and fine tune to (F# C# F# B F# A#). Remember,
using a capo often throws the tuning out of whack so you're definitely going
to want to fine tune it after you've got the capo on. Don't just throw the capo
on the 6th fret and then complain to me about how it doesn't sound right.

All of the verses are pretty much the same, but I just tabbed out the whole
song anyways.

Here's a link to a really good (and completely free) online tuning website: 
(http://www.get-tuned.com/online_guitar_tuner.php)

Comment or message any ideas or corrections. Please rate my tab.



Key:
where # represents a fret number

#h# - hammer
#p# - pull



Intro:


   0:00
    
A#|-----------------0-----------------|
F#|-----------------------------------|
B |---0-2-------0h2-----------0-2-----|
F#|-4-----0-----------0-----4-----0---|
C#|-----------0-----------0-----------|
F#|---------0-----------0-------------|


   0:02

A#|-----------0-----------0-----------|
F#|-----------------------------------|
B |-----2-0---------2-0---------------|
F#|---------2-----------2-------------|
C#|---2-----------2-------------------|
F#|-2-----------2---------------------|


   0:05

A#|-----------0-----------0-----------|
F#|-----------------------------------|
B |-----2-0---------2-0---------------|
F#|---------0-----------0-------------|
C#|---2-----------2-------------------|
F#|-0-----------0---------------------|


   0:07

A#|---------0-------------------------|
F#|-----------------------------------|
B |-----0h2-----------0-2-------------| X2
F#|-----------0-----4-----0-----------|
C#|---0-----------0-------------------|
F#|-0-----------0---------------------|



Verse 1:


   0:11
               When I was young
A#|-----------0-----------0-----------|
F#|-----------------------------------|
B |-----2-0---------2-0---------------| 
F#|---------2-----------2-------------|
C#|---2-----------2-------------------|
F#|-2-----------2---------------------|


   0:13
            Younger than before
A#|-----------0-----------0-----------|
F#|-----------------------------------|
B |-----2-0---------2-0---------------|
F#|---------2-----------2-------------|
C#|---2-----------2-------------------|
F#|-2-----------2---------------------|


   0:15

A#|---------0-------------------------|
F#|-----------------------------------|
B |-----0h2-----------0-2-------------| X2
F#|-----------0-----4-----0-----------|
C#|---0-----------0-------------------|
F#|-0-----------0---------------------|


   0:19
                I never saw the truth
A#|-----------0-----------0-----------|
F#|-----------------------------------|
B |-----2-0---------2-0---------------| 
F#|---------2-----------2-------------|
C#|---2-----------2-------------------|
F#|-2-----------2---------------------|


   0:21
                Hanging from the door       
A#|-----------0-----------0-----------|
F#|-----------------------------------|
B |-----2-0---------2-0---------------|
F#|---------2-----------2-------------|
C#|---2-----------2-------------------|
F#|-2-----------2---------------------|


   0:24

A#|---------0-------------------------|
F#|-----------------------------------|
B |-----0h2-----------0-2-------------| X2
F#|-----------0-----4-----0-----------|
C#|---0-----------0-------------------|
F#|-0-----------0---------------------|


   0:28
                 Now I'm older
A#|-----------------------------------|
F#|-----------------------------------|
B |-----2-----4------2-----4----------| 
F#|-------4------------4--------------|
C#|---4-----4------4-----4------------|
F#|-4------------4--------------------|


   0:30
 
A#|-----------------------------------|
F#|-----------------------------------|
B |-----2-----4------2-----2----------| 
F#|-------4------------4--------------|
C#|---4-----4------4-----0------------|
F#|-4------------4--------------------|


   0:32
   See it face to face
A#|-----------0-----------------------|
F#|-----------------------------------|
B |-----0-----------0-----2-----------| X2
F#|-------0-----------0---------------|
C#|---2-----2-----2-----2-------------|
F#|-2-----------2---------------------|


   0:36
                 Now I'm older
A#|-----------------------------------|
F#|-----------------------------------|
B |-----2-----4------2-----4----------| 
F#|-------4------------4--------------|
C#|---4-----4------4-----4------------|
F#|-4------------4--------------------|


   0:38

A#|-----------------------------------|
F#|-----------------------------------|
B |-----2-----4------2-----2----------| 
F#|-------4------------4--------------|
C#|---4-----4------4-----0------------|
F#|-4------------4--------------------|


   0:40
    Gotta get up, clean the place
A#|-----------0-----------------------|
F#|-----------------------------------|
B |-----0-----------0-----2-----------| X3
F#|-------0-----------0---------------|
C#|---2-----2-----2-----2-------------|
F#|-2-----------2---------------------|


   0:47

A#|---------0-------------------------|
F#|-----------------------------------|
B |-----0h2-----------0-2-------------| X2
F#|-----------0-----4-----0-----------|
C#|---0-----------0-------------------|
F#|-0-----------0---------------------|


   0:51

A#|-----------0-----------0-----------|
F#|-----------------------------------|
B |-----2-0---------2-0---------------|
F#|---------2-----------2-------------|
C#|---2-----------2-------------------|
F#|-2-----------2---------------------|


   0:53

A#|-----------0-----------0-----------|
F#|-----------------------------------|
B |-----2-0---------2-0---------------|
F#|---------0-----------0-------------|
C#|---2-----------2-------------------|
F#|-0-----------0---------------------|

 
   0:55

A#|---------0-------------------------|
F#|-----------------------------------|
B |-----0h2-----------0-2-------------| X2
F#|-----------0-----4-----0-----------|
C#|---0-----------0-------------------|
F#|-0-----------0---------------------|



Verse 2:


   0:59
                And I was green
A#|-----------0-----------0-----------|
F#|-----------------------------------|
B |-----2-0---------2-0---------------| 
F#|---------2-----------2-------------|
C#|---2-----------2-------------------|
F#|-2-----------2---------------------|


   1:01
              Greener than the hill
A#|-----------0-----------0-----------|
F#|-----------------------------------|
B |-----2-0---------2-0---------------|
F#|---------2-----------2-------------|
C#|---2-----------2-------------------|
F#|-2-----------2---------------------|


   1:03

A#|---------0-------------------------|
F#|-----------------------------------|
B |-----0h2-----------0-2-------------| X2
F#|-----------0-----4-----0-----------|
C#|---0-----------0-------------------|
F#|-0-----------0---------------------|


   1:08
                Where flowers bloom
A#|-----------0-----------0-----------|
F#|-----------------------------------|
B |-----2-0---------2-0---------------| 
F#|---------2-----------2-------------|
C#|---2-----------2-------------------|
F#|-2-----------2---------------------|


   1:10
              And sun shone still
A#|-----------0-----------0-----------|
F#|-----------------------------------|
B |-----2-0---------2-0---------------|
F#|---------2-----------2-------------|
C#|---2-----------2-------------------|
F#|-2-----------2---------------------|


   1:12

A#|---------0-------------------------|
F#|-----------------------------------|
B |-----0h2-----------0-2-------------| X2
F#|-----------0-----4-----0-----------|
C#|---0-----------0-------------------|
F#|-0-----------0---------------------|



   1:16
                 Now I'm darker
A#|-----------------------------------|
F#|-----------------------------------|
B |-----2-----4------2-----4----------| 
F#|-------4------------4--------------|
C#|---4-----4------4-----4------------|
F#|-4------------4--------------------|


   1:18
 
A#|-----------------------------------|
F#|-----------------------------------|
B |-----2-----4------2-----2----------| 
F#|-------4------------4--------------|
C#|---4-----4------4-----0------------|
F#|-4------------4--------------------|


   1:20
   Than the deepest sea
A#|-----------------------0-----------|
F#|-----------------------------------|
B |-----0-----2-----0-----------------| 
F#|-------0-----------0---------------|
C#|---2-----2-----2-----2-------------|
F#|-2-----------2---------------------|


   1:22

A#|-----------------------------------|
F#|-----------------------------------|
B |-----0-----2-----0-----2-----------| 
F#|-------0-----------0---------------|
C#|---2-----2-----2-----2-------------|
F#|-2-----------2---------------------|


   1:24
                 Just hand me down
A#|-----------------------------------|
F#|-----------------------------------|
B |-----2-----4------2-----4----------| 
F#|-------4------------4--------------|
C#|---4-----4------4-----4------------|
F#|-4------------4--------------------|


   1:26

A#|-----------------------------------|
F#|-----------------------------------|
B |-----2-----4------2-----2----------| 
F#|-------4------------4--------------|
C#|---4-----4------4-----0------------|
F#|-4------------4--------------------|


   1:28
    Give me place to be
A#|-----------------------------------|
F#|-----------------------------------|
B |-----0-----2-----0-----2-----------| 
F#|-------0-----------0---------------|
C#|---2-----2-----2-----2-------------|
F#|-2-----------2---------------------|


   1:30

A#|-----------0-----------------------|
F#|-----------------------------------|
B |-----0-----------0-----2-----------| X2
F#|-------0-----------0---------------|
C#|---2-----2-----2-----2-------------|
F#|-2-----------2---------------------|



Solo:


   1:35

A#|---------0-------------------------|  
F#|-----------------------------------|  
B |-----0h2---------4---2-------------|  S1
F#|-----------0-------0---0-----------|
C#|---0-----------0-------------------|
F#|-0-----------0---------------------|
                                         ^ 
                                         |  Two sections, S1 and S2, 
                                         |  Play through 3 times total 
                                         v  from 1:35 - 1:47                                       
A#|-----------------------------------|
F#|-----------------------------------|
B |---------0-2-------0---------------|  S2
F#|-----0-4---------2-----0-----------|
C#|---0-----------0-----2-------------|
F#|-0-----------0---------------------|


   1:47

A#|---------0-------------------------|
F#|-----------------------------------|
B |-----0-----------0---2-------------| 
F#|---0---0---0-------0---0-----------|
C#|---------------3-------------------|
F#|-0-----------0---------------------|


   1:49

A#|-----------0-----------------------|
F#|-----------------------------------|
B |-----0-----------0-----2-----------| 
F#|-------0-----------0---------------|
C#|---2-----2-----2-----2-------------|
F#|-0-----------0---------------------|


   1:52

A#|---------0-------------------------|
F#|-----------------------------------|
B |-----0h2-----------0-2-------------| X2
F#|-----------0-----4-----0-----------|
C#|---0-----------0-------------------|
F#|-0-----------0---------------------|




Verse 3:


   1:56
               And I was strong
A#|-----------0-----------0-----------|
F#|-----------------------------------|
B |-----2-0---------2-0---------------| 
F#|---------2-----------2-------------|
C#|---2-----------2-------------------|
F#|-2-----------2---------------------|


   1:58
                Strong inside
A#|-----------0-----------0-----------|
F#|-----------------------------------|
B |-----2-0---------2-0---------------|
F#|---------2-----------2-------------|
C#|---2-----------2-------------------|
F#|-2-----------2---------------------|


   2:00

A#|---------0-------------------------|
F#|-----------------------------------|
B |-----0h2-----------0-2-------------| X2
F#|-----------0-----4-----0-----------|
C#|---0-----------0-------------------|
F#|-0-----------0---------------------|


   2:04
               I thought I'd see when day is done
A#|-----------0-----------0-----------|
F#|-----------------------------------|
B |-----2-0---------2-0---------------| 
F#|---------2-----------2-------------|
C#|---2-----------2-------------------|
F#|-2-----------2---------------------|


   2:06
              
A#|-----------0-----------0-----------|
F#|-----------------------------------|
B |-----2-0---------2-0---------------|
F#|---------2-----------2-------------|
C#|---2-----------2-------------------|
F#|-2-----------2---------------------|


   2:08

A#|---------0-------------------------|
F#|-----------------------------------|
B |-----0h2-----------0-2-------------| X2
F#|-----------0-----4-----0-----------|
C#|---0-----------0-------------------|
F#|-0-----------0---------------------|


   2:13
                 And now I'm weaker     
A#|-----------------------------------|
F#|-----------------------------------|
B |-----2-----4------2-----4----------| 
F#|-------4------------4--------------|
C#|---4-----4------4-----4------------|
F#|-4------------4--------------------|


   2:15
 
A#|-----------------------------------|
F#|-----------------------------------|
B |-----2-----4------2-----2----------| 
F#|-------4------------4--------------|
C#|---4-----4------4-----0------------|
F#|-4------------4--------------------|


   2:17
   Than the palest blue
A#|-----------0-----------------------|
F#|-----------------------------------|
B |-----0-----------0-----2-----------| X2
F#|-------0-----------0---------------|
C#|---2-----2-----2-----2-------------|
F#|-2-----------2---------------------|


   2:21
                 Oh so weak 
A#|-----------------------------------|
F#|-----------------------------------|
B |-----2-----4------2-----4----------| 
F#|-------4------------4--------------|
C#|---4-----4------4-----4------------|
F#|-4------------4--------------------|


   2:23

A#|-----------------------------------|
F#|-----------------------------------|
B |-----2-----4------2-----2----------| 
F#|-------4------------4--------------|
C#|---4-----4------4-----0------------|
F#|-4------------4--------------------|


   2:25
    In this need for you
A#|-----------0-----------------------|
F#|-----------------------------------|
B |-----0-----------0-----2-----------| X3
F#|-------0-----------0---------------|
C#|---2-----2-----2-----2-------------|
F#|-2-----------2---------------------|


   2:31

A#|---------0-------------------------|
F#|-----------------------------------|
B |-----0h2-----------0-2-------------| X2
F#|-----------0-----4-----0-----------|
C#|---0-----------0-------------------|
F#|-0-----------0---------------------|



Outro:


   2:35

A#|-----------0-----------0----------0--------|
F#|-------------------------------------------|
B |-----2-0---------2-0----------0h2------2---|
F#|---------2-----------2---------------0-----|
C#|---2-----------2------------0--------------|
F#|-2-----------2------------0----------------|
Tap to rate this tab
# A B C D E F G H I J K L M N O P Q R S T U V W X Y Z