Song name
# A B C D E F G H I J K L M N O P Q R S T U V W X Y Z

Nick Drake - One Of These Things First tab

Nick Drake - Milk and Honey

TUNING: BEBEBE  - highest two strings remain while the bottom 4 are tuned down.

Intro:

E:------------------------------------|
B:------------------------------------|
E:---4-4-----5-5-----7-7-----6--5-----|  x4
B:--0-0-0---2-2-2---4-4-4---3--2------|
E:-0-------0-------0-------0--0-------|
B:------------------------------------|


Verse:

E:------------------------------------|
B:------------------------------------|
E:---4-4-----5-5-----7-7-----6--5-----|  x4
B:--0-0-0---2-2-2---4-4-4---3--2------|
E:-0-------0-------0-------0--0-------|
B:------------------------------------|

E:------------------------------------------------------------------------|
B:------------------------------------------------------------------------|
E:---0-0-----0-0-----0-0-----0-0---------3-3-----3-3-----3-3-----3-3------|
B:--5-5-5---5-5-5---5-5-5---5-5-5-------3-3-3---3-3-3---3-3-3---3-3-3-----|
E:-5-------5-------5-------5-----------3-------3-------3-------3----------|
B:------------------------------------------------------------------------|

E:------------------------------------|
B:------------------------------------|
E:---4-4-----5-5-----7-7-----6--5-----|  x2
B:--0-0-0---2-2-2---4-4-4---3--2------|
E:-0-------0-------0-------0--0-------|
B:------------------------------------|

E:------------------------------------|
B:------------------------------------|
E:---3-3-----3-3-----0-0-----0-0------|
B:--3-3-3---3-3-3---2-2-2---2-2-2-----|
E:-3-------3-------2-------2----------|
B:------------------------------------|

E:------------------------------------|
B:------------------------------------|
E:---4-4-----5-5-----7-7-----6--5-----|  x1
B:--0-0-0---2-2-2---4-4-4---3--2------|
E:-0-------0-------0-------0--0-------|
B:------------------------------------|

E:------------------------------------|
B:------------------------------------|
E:---3-3-----3-3-----0-0-----0-0------|
B:--3-3-3---3-3-3---2-2-2---2-2-2-----|
E:-3-------3-------2-------2----------|
B:------------------------------------|

E:------------------------------------|
B:------------------------------------|
E:---4-4-----5-5-----7-7-----6--5-----|  x1
B:--0-0-0---2-2-2---4-4-4---3--2------|
E:-0-------0-------0-------0--0-------|
B:------------------------------------|

Chorus:

E:--------------------------------------------------------------------------------|
B:--------------------------------------------------------------------------------|
E:---0-0-----0-0-----0-0-----0-0---------0----0----0----0----0----0----0----0-----|
B:--5-5-5---5-5-5---5-5-5---5-5-5-------2----2----2----2----2----2----2----2------|
E:-5-------5-------5-------5-----------2----5----2---------2----5----2------------|
B:----------------------------------------------------2-------------------2-------|

E:------------------------------------|
B:------------------------------------|
E:---4-4-----5-5-----7-7-----6--5-----|  x1
B:--0-0-0---2-2-2---4-4-4---3--2------|
E:-0-------0-------0-------0--0-------|
B:------------------------------------|

E:--------------------------------------------------------------------------------|
B:--------------------------------------------------------------------------------|
E:---0-0-----0-0-----0-0-----0-0---------0----0----0----0----0----0----0----0-----|
B:--5-5-5---5-5-5---5-5-5---5-5-5-------2----2----2----2----2----2----2----2------|
E:-5-------5-------5-------5-----------2----5----2---------2----5----2------------|
B:----------------------------------------------------2-------------------2-------|

E:------------------------------------|
B:------------------------------------|
E:---4-4-----5-5-----7-7-----6--5-----|  x2
B:--0-0-0---2-2-2---4-4-4---3--2------|
E:-0-------0-------0-------0--0-------|
B:------------------------------------|

Verse:

Chorus:

Interlude:

E:------------------------------------|
B:------------------------------------|
E:---3-3-----3-3-----0-0-----0-0------|
B:--3-3-3---3-3-3---2-2-2---2-2-2-----|
E:-3-------3-------2-------2----------|
B:------------------------------------|

E:------------------------------------|
B:------------------------------------|
E:---4-4-----5-5-----7-7-----6--5-----|  x1
B:--0-0-0---2-2-2---4-4-4---3--2------|
E:-0-------0-------0-------0--0-------|
B:------------------------------------|

E:------------------------------------|
B:------------------------------------|
E:---3-3-----3-3-----0-0-----0-0------|
B:--3-3-3---3-3-3---2-2-2---2-2-2-----|
E:-3-------3-------2-------2----------|
B:------------------------------------|

E:------------------------------------|
B:------------------------------------|
E:---4-4-----5-5-----7-7-----6--5-----|  x1
B:--0-0-0---2-2-2---4-4-4---3--2------|
E:-0-------0-------0-------0--0-------|
B:------------------------------------|

E:--------------------------------------------------------------------------------|
B:--------------------------------------------------------------------------------|
E:---0-0-----0-0-----0-0-----0-0---------0----0----0----0----0----0----0----0-----|
B:--5-5-5---5-5-5---5-5-5---5-5-5-------2----2----2----2----2----2----2----2------|
E:-5-------5-------5-------5-----------2----5----2---------2----5----2------------|
B:----------------------------------------------------2-------------------2-------|

E:------------------------------------|
B:------------------------------------|
E:---4-4-----5-5-----7-7-----6--5-----|  x2
B:--0-0-0---2-2-2---4-4-4---3--2------|
E:-0-------0-------0-------0--0-------|
B:------------------------------------|

Verse:

Final Chorus:

E:--------------------------------------------------------------------------------|
B:--------------------------------------------------------------------------------|
E:---0-0-----0-0-----0-0-----0-0---------0----0----0----0----0----0----0----0-----|
B:--5-5-5---5-5-5---5-5-5---5-5-5-------2----2----2----2----2----2----2----2------|
E:-5-------5-------5-------5-----------2----5----2---------2----5----2------------|
B:----------------------------------------------------2-------------------2-------|

E:------------------------------------|
B:------------------------------------|
E:---4-4-----5-5-----7-7-----6--5-----|  x1
B:--0-0-0---2-2-2---4-4-4---3--2------|
E:-0-------0-------0-------0--0-------|
B:------------------------------------|

E:--------------------------------------------------------------------------------|
B:--------------------------------------------------------------------------------|
E:---0-0-----0-0-----0-0-----0-0---------0----0----0----0----0----0----0----0-----|
B:--5-5-5---5-5-5---5-5-5---5-5-5-------2----2----2----2----2----2----2----2------|
E:-5-------5-------5-------5-----------2----5----2---------2----5----2------------|
B:----------------------------------------------------2-------------------2-------|

E:------------------------------------|
B:------------------------------------|
E:---4-4-----5-5-----7-7-----6--5-----|  x1
B:--0-0-0---2-2-2---4-4-4---3--2------|
E:-0-------0-------0-------0--0-------|
B:------------------------------------|

E:--------------------------------------------------------------------------------|
B:--------------------------------------------------------------------------------|
E:---0-0-----0-0-----0-0-----0-0---------0----0----0----0----0----0----0----0-----|
B:--5-5-5---5-5-5---5-5-5---5-5-5-------2----2----2----2----2----2----2----2------|
E:-5-------5-------5-------5-----------2----5----2---------2----5----2------------|
B:----------------------------------------------------2-------------------2-------|

E:------------------------------------0-|
B:------------------------------------0-|
E:---4-4-----5-5-----7-7-----6--5-----4-|  x1
B:--0-0-0---2-2-2---4-4-4---3--2------5-|
E:-0-------0-------0-------0--0-------0-|
B:------------------------------------0-|


Pulled from this Video: http://www.youtube.com/watch?v=REL7k0fv5Sc
Email corrections at alemerson@gmail.com
Tap to rate this tab
# A B C D E F G H I J K L M N O P Q R S T U V W X Y Z