Song name
# A B C D E F G H I J K L M N O P Q R S T U V W X Y Z

Nick En Simon - Julia chords

Highlighted       Show chord diagrams
Original Version

Eb      x-6-8-8-8-6
Bb      6-8-8-7-6-6
Cm      8-10-10-9-8-8
Ab      4-6-6-5-4-4

Chorus:
Eb Bb                    Cm Ab
Oh Julia je hoort bij mij
Eb Bb                     Cm Ab
Oh Julia loop niet voorbij
             Eb Bb
Alles is mijn schuld, 't is mijn fout
               Cm Ab
Maar heb wat geduld en weet dat ik van je houd
Eb Bb                Cm Ab
Oh Julia je hoort bij mij-ij-ij, bij mij

Whistle: Eb Bb Cm Ab 2x

Verse:
e|----------------------------------------------------|
B|---------9------7------------------8----------4-----|
G|-------9-------------------------9------------5-----|
D|-----9----------9------------10-----------6---------|
A|---7----------------------10------------------------|
E|----------------------------------------------------| 3x
     Eb           Bb        Cm              Ab
Je zegt me dat je niks meer voelt voor mij
Alle deuren nu voorgoed gesloten zijn
Maar aan de toon waarop je spreekt
Hoor ik dat jij nog om me geeft

e|------------------------|
B|---------9-------7------|
G|-------9----------------|
D|-----9-----------9------|
A|---7--------------------|
E|------------------------| 1x   Cm  Ab
     Eb            Bb                      
En koester ik de stille hoop dat jij me ooit vergeeft

e|----------------------------------------------------|
B|---------9------7------------------8----------4-----|
G|-------9-------------------------9------------5-----|
D|-----9----------9------------10-----------6---------|
A|---7----------------------10------------------------|
E|----------------------------------------------------| 3x
     Eb           Bb        Cm              Ab
Ik weet dat ik wat fouten heb begaan
En die maak ik niet zomaar ongedaan
Ik was mezelf, kwijt geraakt
Als uit een nachtmerrie die ontwaakt

e|------------------------|
B|---------9-------7------|
G|-------9----------------|
D|-----9-----------9------|
A|---7--------------------|
E|------------------------| 1x   Cm  Ab
     Eb            Bb                     
Aanschouw ik nu wat ik in al die tijd heb stuk gemaakt

Chorus:
Eb Bb                    Cm Ab
Oh Julia je hoort bij mij
Eb Bb                     Cm Ab
Oh Julia loop niet voorbij
             Eb Bb
Alles is mijn schuld, 't is mijn fout
               Cm Ab
Maar heb wat geduld en weet dat ik van je houd
Eb Bb                Cm Ab
Oh Julia je hoort bij mij-ij-ij, bij mij

Whistle: Eb Bb Cm Ab 2x

Verse:
e|----------------------------------------------------|
B|---------9------7------------------8----------4-----|
G|-------9-------------------------9------------5-----|
D|-----9----------9------------10-----------6---------|
A|---7----------------------10------------------------|
E|----------------------------------------------------|  3x
     Eb           Bb        Cm              Ab
Is dit echt het einde van de lijn
Herinner je hoe mooi het soms kon zijn
Als je voelt hoe zwaar ik lijd
En hoeveel het mij nu spijt

e|------------------------|
B|---------9-------7------|
G|-------9----------------|
D|-----9-----------9------|
A|---7--------------------|
E|------------------------| 1x   Cm  Ab
     Eb            Bb              
Voel je dat ik jou terug wil en tot alles ben bereid

Chorus:
Eb Bb                    Cm Ab
Oh Julia je hoort bij mij
Eb Bb                     Cm Ab
Oh Julia loop niet voorbij
             Eb Bb
Alles is mijn schuld, 't is mijn fout
               Cm Ab
Maar heb wat geduld en weet dat ik van je houd
Eb Bb                Cm Ab
Oh Julia je hoort bij mij-ij-ij, bij mij

Bridge:
                Cm                    Bb
Ik geef je mijn hart, ik geef je mijn ziel
           Ab
Ik geef je alles wat ik in me heb
   Cm      Bb              Ab            Bb
Zo lang ik alles voor jouw liefde ruilen kan oh-o-o-o-oh

Chorus:
Eb Bb                    Cm Ab
Oh Julia je hoort bij mij
Eb Bb                     Cm Ab
Oh Julia loop niet voorbij
             Eb Bb
Alles is mijn schuld, 't is mijn fout
               Cm Ab
Maar heb wat geduld en weet dat ik van je houd
Eb Bb                Cm Ab
Oh Julia je hoort bij mij-ij-ij, bij mij

Chorus & whistle:
Eb Bb                    Cm Ab
Oh Julia je hoort bij mij
Eb Bb                     Cm Ab
Oh Julia loop niet voorbij
             Eb Bb
Alles is mijn schuld, 't is mijn fout
               Cm Ab
Maar heb wat geduld en weet dat ik van je houd
Eb Bb                Cm Ab               Eb
Oh Julia je hoort bij mij-ij-ij, bij mij




Simple Version

Capo 1

D  x-x-0-2-3-2
A  x-0-2-2-2-0
Bm 2-2-4-4-3-2   or   x-x-4-4-3-2
G  3-1-0-0-0-3

Chorus:
D  A                     Bm  G
Oh Julia je hoort bij mij
D  A                      Bm  G
Oh Julia loop niet voorbij
             D  A
Alles is mijn schuld, 't is mijn fout
               Bm  G
Maar heb wat geduld en weet dat ik van je houd
D  A                 Bm  G
Oh Julia je hoort bij mij-ij-ij, bij mij

Whistle: D  A  Bm  G  2x

Verse:
e|---------2----0-------------------2-------------|
B|-------3------------------------3-----------0---|
G|-----2--------2---------------4----------0------|
D|---0------------------------4-------------------|
A|------------------------------------------------|
E|------------------------------------------------| 3x
     D          A             Bm           G
Je zegt me dat je niks meer voelt voor mij
Alle deuren nu voorgoed gesloten zijn
Maar aan de toon waarop je spreekt
Hoor ik dat jij nog om me geeft

e|---------2------0-----|
B|-------3--------------|
G|-----2----------2-----|
D|---0------------------|
A|----------------------|
E|----------------------| 1x   Bm  G
     D            A
En koester ik de stille hoop dat jij me ooit vergeeft

e|---------2----0-------------------2-------------|
B|-------3------------------------3-----------0---|
G|-----2--------2---------------4----------0------|
D|---0------------------------4-------------------|
A|------------------------------------------------|
E|------------------------------------------------| 3x
     D          A             Bm           G
Ik weet dat ik wat fouten heb begaan
En die maak ik niet zomaar ongedaan
Ik was mezelf, kwijt geraakt
Als uit een nachtmerrie die ontwaakt

e|---------2------0-----|
B|-------3--------------|
G|-----2----------2-----|
D|---0------------------|
A|----------------------|
E|----------------------| 1x   Bm  G
     D            A
Aanschouw ik nu wat ik in al die tijd heb stuk gemaakt

Chorus:
D  A                     Bm  G
Oh Julia je hoort bij mij
D  A                      Bm  G
Oh Julia loop niet voorbij
             D  A
Alles is mijn schuld, 't is mijn fout
               Bm  G
Maar heb wat geduld en weet dat ik van je houd
D  A                Bm  G
Oh Julia je hoort bij mij-ij-ij, bij mij

Whistle: D  A  Bm  G  2x

Verse:
e|---------2----0-------------------2-------------|
B|-------3------------------------3-----------0---|
G|-----2--------2---------------4----------0------|
D|---0------------------------4-------------------|
A|------------------------------------------------|
E|------------------------------------------------| 3x
     D          A             Bm           G
Is dit echt het einde van de lijn
Herinner je hoe mooi het soms kon zijn
Als je voelt hoe zwaar ik lijd
En hoeveel het mij nu spijt

e|---------2------0-----|
B|-------3--------------|
G|-----2----------2-----|
D|---0------------------|
A|----------------------|
E|----------------------| 1x   Bm  G
     D            A
Voel je dat ik jou terug wil en tot alles ben bereid

Chorus:
D  A                     Bm  G
Oh Julia je hoort bij mij
D  A                      Bm  G
Oh Julia loop niet voorbij
             D  A
Alles is mijn schuld, 't is mijn fout
               Bm  G
Maar heb wat geduld en weet dat ik van je houd
D  A                 Bm  G
Oh Julia je hoort bij mij-ij-ij, bij mij

Bridge:
                Bm                    A
Ik geef je mijn hart, ik geef je mijn ziel
           G
Ik geef je alles wat ik in me heb
   Bm      A               G             A
Zo lang ik alles voor jouw liefde ruilen kan oh-o-o-o-oh

Chorus:
D  A                     Bm  G
Oh Julia je hoort bij mij
D  A                      Bm  G
Oh Julia loop niet voorbij
             D  A
Alles is mijn schuld, 't is mijn fout
               Bm  G
Maar heb wat geduld en weet dat ik van je houd
D  A                 Bm  G
Oh Julia je hoort bij mij-ij-ij, bij mij

Chorus & whistle:
D  A                     Bm  G
Oh Julia je hoort bij mij
D  A                      Bm  G
Oh Julia loop niet voorbij
             D  A
Alles is mijn schuld, 't is mijn fout
               Bm  G
Maar heb wat geduld en weet dat ik van je houd
D  A                 Bm  G               D
Oh Julia je hoort bij mij-ij-ij, bij mij
Tap to rate this tab
# A B C D E F G H I J K L M N O P Q R S T U V W X Y Z