Song name
# A B C D E F G H I J K L M N O P Q R S T U V W X Y Z

Nick Jonas And The Administration - Who I Am chords

|-----------7---------------------------------|
|--9--7--9--------------7-------------7-------|
|--------------8--6--8-----6--4---6-8---6-----|  x2
|---------------------------------------------|
|---------------------------------------------|
|---------------------------------------------|



|---------------------------------------------------------|
|--10--9---------14------12--16b18--16--14------18b20-----|
|---------11--9------13---------------------15------------|
|---------------------------------------------------------|
|---------------------------------------------------------|
|---------------------------------------------------------|
Tap to rate this tab
 
# A B C D E F G H I J K L M N O P Q R S T U V W X Y Z