Song name
# A B C D E F G H I J K L M N O P Q R S T U V W X Y Z

Nick Jonas And The Administration - A Little Bit Longer tab

heres the song converted from pianoo to guitarrr! hope you like an i hope ultimate 
finally accepts ittt since itss goood!

INTRO

 F    C     G
[1----0-----3]
[1----1-----0]
[2----0-----0]
[3----2-----0]   X2
[3----3-----2]
[1----x-----3]

VERSE

[--------------------------------0-1-0-----0-------------------0-----]
[1-0-1-0-1------0--1-0-1-0-1--1---------3------1------------------3-1]
[-------------2------------------------------------2-0-----0---------]
[-------------------------------------------------------3------------]
[--------------------------------------------------------------------]
[--------------------------------------------------------------------]

CHORUS

[-------0---------------------0-----]
[---------3-3--1-----------------3-1]
[--0-0------------2-0------0--------]
[----------------------3------------]
[-----------------------------------]
[-----------------------------------]
[-----------------------------------]


[0--1--0-----]
[--------3--1]
[------------]
[------------]  repeat intro twice
[------------]
[------------]

intro
verse
chorus
verse chorus
intro use as outro also
Tap to rate this tab
# A B C D E F G H I J K L M N O P Q R S T U V W X Y Z