Song name
# A B C D E F G H I J K L M N O P Q R S T U V W X Y Z

Nick Jonas And The Administration - Last Time Around tab

This tab is based off this video taken in Dallas, Texas on open night of his tour:

http://www.youtube.com/watch?v=vuzqmlopB1I

If you have any questions as to when and where to play something; refer to the video.
Questions about anything else, feel free wo email me at katlynkayy19@gmail.com

The intro is SOMETHING along the lines of:

e|-------------------------------------------|
B|-------------------------------------------|
G|-------------------------------------------|
D|--0h2p0------------------------------------|  Repeated
A|-------------------------------------------|
E|-------------------------------------------|

With the back up chords:

    Em          G        Am
e|----------------------------------------------------|
B|----------------------------------------------------|
G|----------------------------------------------------|
D|--2-----------5--------7----------------------------|
A|--2-or-7------5--------7----------------------------|
E|--0----7------3--------5----------------------------|


Verse

e|------------------------------------------------|
B|------------------------------------------------|
G|------------------------------------------------|
D|------------------------------------------------|
A|------------------------------------------------|
E|--0-0h3-3h5-5p3-3-0-0h3-3h5-3-5-3---------------|      x2


e|-------------------------------------------|
B|-------------------------------------------|
G|-------------------------------------------|
D|-------------------------------------------|
A|-------------------------------------------|
E|--5s7-5s3-7-5------------------------------|


Chorus

e|-------------------------------------------|
B|-------------------------------------------|
G|-------------------------------------------|
D|-------------------------------------------|
A|-------------------------------------------|
E|--0-0h3-3h5-5p3-3-0------------------------|   x4


Bridge

e|--------------------------------------------------------|
B|--------------------------------------------------------|
G|--------------------------------------------------------|
D|--------------------------------------7---5---2---------|
A|----------5----------------------5----7---5---2---------|
E|--0-0h3-5---7-7p5-5p3-3p0-0-0h3-5--7--5---3---0---------|    x4


Back up chords:
(The other Em is the one he sometimes uses on stage)


     Em         G       Am        G
e|----------------------------------------------------|
B|----------------------------------------------------|
G|----------------------------------------------------|
D|--2-----------5--------7--------5-------------------|
A|--2-or-7------5--------7--------5-------------------|
E|--0----7------3--------5--------3-------------------|


Lyrics:
(May be off)

VERSE:

Walk in the room
I'm a man on a mission
You're standin' there and I feel a connection
I break the ice and I ask whatcha name is
Then I recall that we've already ended
But somehow I missed it

CHORUS:

Keep on movin'
Like you did last summer
When the grass was greener
And your hair was longer
If you become familiar with another in town
Don't forget about the fun that we had
Last time around

VERSE:

You walk around with a new man, new plan
You think it's over, but I'm just getting started
I try to call, but you don't ever answer
I'd let you go, but you've already left me
Can't you remember?

CHORUS:

Keep on movin'
Like you did last summer
The grass was greener
Your hair was longer
You're becoming familiar with another in town
But don't forget about the fun that we had
Last time around
Tap to rate this tab
 
# A B C D E F G H I J K L M N O P Q R S T U V W X Y Z