Song name
# A B C D E F G H I J K L M N O P Q R S T U V W X Y Z

Nick Jonas And The Administration - Vespers Goodbye tab

Nick Jonas is absolutely amazing so i just had to figure the tabs out!
Im pretty sure its right, if you find any mistakes just tell me. :)

Need help learning how to pick the strings? 
I have a cover that will help you!
http://www.youtube.com/watch?v=jPKyunqsUKk
Rate, Comment, & Subscribe! -- Sarah


TUNING:STANDARD

INTRO
e ----------------|
B -2----0---------|
G ---------2------|
D -2----2--2------| x2
A ----------------|
E ----------------|

VERSE(1&2)
e ----------------|
B --2----0--------|
G ----------2-----|
D --2----2--2-----| x8
A ----------------|
E ----------------|
All of you, 
shaped me into what I am, 
carried out the better man, 
Do you have a master plan? 
Oh no. 

Somewhere, I, 
let all my defenses down, 
never thought to turn around, 
and you did not make a sound. 

CHORUS
e --------------------------|
B --0--2---3--2---2---0-----|
G -----2---2--2----------2--|
D ----------------2---2--2--| 
A --2-----------------------|
E --------------------------|
Slowly turning red, 
like a bullet through the chest, 
lay me down to rest, 
it's a lovers final breath. 


VERSE(3&4)
e ----------------|
B --2----0--------|
G ----------2-----|
D --2----2--2-----| x9
A ----------------|
E ----------------|
I found out, 
nothing comes without a cost, 
life was just a game we lost, 
Do you have a better thought? 

Now, you're gone, and 
Nothing's ever felt so wrong 
A moment seems to last so long, 
Do you have a fear so strong?

CHORUS
e --------------------------|
B --0--2---3--2---2---0-----|
G -----2---2--2----------2--|
D ----------------2---2--2--| 
A --2-----------------------|
E --------------------------|
Slowly turning red, 
like a bullet through the chest, 
lay me down to rest, 
it's a lovers final breath. 


VERSE(5)
e ----------------|
B --2----0--------|
G ----------2-----|
D --2----2--2-----| x4
A ----------------|
E ----------------|
Now I die, 
Kiss your tender lips goodbye, 
Pray to God who hears my cry
Tap to rate this tab
# A B C D E F G H I J K L M N O P Q R S T U V W X Y Z