Song name
# A B C D E F G H I J K L M N O P Q R S T U V W X Y Z

Nick Jonas And The Administration - Last Time Around tab

Intro

|---------|
|---------|
|---0p2---| x32
|---0-----|
|---------|
|---------|


Verse

|-------------------------------------------|
|-------------------------------------------|
|-------------------------------------------|
|-------------------------------------------|
|-------------------------------------------|
|--0--0p3--3p5--5h3--3h0--0p3--5--3--5--3---|



|-------------------------------------------------------|
|-------------------------------------------------------|
|-------------------------------------------------------|
|-------------------------------------------------------|
|-------------------------------------------------------|
|--0--0p3--3p5--5h3--3h0--0p3--5--3--5--3--7--5--7--5---|





Chorus

|-------------------------|
|-------------------------|
|-------------------------|   x4
|-------------------------|
|-------------------------|
|--0--0p3--3p5--5h3--3h0--|


Intro

Verse

Chorus


Solo

|-------------------------------------------------------|
|-------------------------------------------------------|
|-------------------------------------------------------|
|-------------------------------------------------------|   x4
|---------5----------------------------5----------------|
|--0--3p5---7--3p5--3p0--3p0-------3p5---7--3--5--3--0--|


Intro

Chorus

Intro

Solo
Tap to rate this tab
# A B C D E F G H I J K L M N O P Q R S T U V W X Y Z