Song name
# A B C D E F G H I J K L M N O P Q R S T U V W X Y Z

Nick Jonas And The Administration - Conspiracy Theory tab

-------------------------------------------------------------------------------
	     CONSPIRACY THEORY - Nick Jonas & The Administration
-------------------------------------------------------------------------------
Tabbed by: kmi777

the string number 6 it's tuned in Eb
I think it's 100% right so rate :D.
you can visit my youtube page too www.youtube.com/user/kmi777

the string number 6 it's tuned in Eb
this is the tab of what nick plays in this song.






INTRO
 e|---------------------------|
 B|---------------------------|
 G|---------------------------|
 D|---------------------------|
 A|-4h6---4h6---4h6-4h6-4h6---|
Eb|-----0-----0-------------0-|

 e|-------------------------------------------------|
 B|-------------------------------------------------|
 G|-------------------------------------------------|
 D|-------------------------------------------------|   x2
 A|-4h6---4h6---4h6-4h6-4h6-------------------------|
Eb|-----0-----0-------------0-5h7-5-5h7-5-5h7-5-3-0-|



VERSE
 e|--------|
 B|--------|
 G|--------|
 D|--------|
 A|-4h6-6\-|
Eb|--------|

 e|----------------------------xxxx----|
 B|----------------------------xxxx----|
 G|----------------------------xxxx----|
 D|----------------------------xxxx----|
 A|-4h6---4h6---4h6-4h6-4h6----xxxx-6\-|
Eb|-----0-----0-------------0--xxxx----|

 e|---------------------------|
 B|---------------------------|
 G|---------------------------|
 D|---------------------------|
 A|-4h6---4h6---4h6-4h6-4h6---|
Eb|-----0-----0-------------0-|



CHORUS (x2)
 e|-xxxx------xxxx------|
 B|-xxxx------xxxx------|
 G|-xxxx------xxxx------|
 D|-xxxx------xxxx------|
 A|-xxxx------xxxx------|
Eb|-xxxx------xxxx------|

 e|---------------------------|
 B|---------------------------|
 G|---------------------------|
 D|---------------------------|
 A|-4h6---4h6---4h6-4h6-4h6---|
Eb|-----0-----0-------------0-|



VERSE (x2)
 e|-xxxx----|
 B|-xxxx----|
 G|-xxxx----|
 D|-xxxx----|
 A|-xxxx-6\-|
Eb|-xxxx----|

 e|---------------------------|
 B|---------------------------|
 G|---------------------------|
 D|---------------------------|
 A|-4h6---4h6---4h6-4h6-4h6---|
Eb|-----0-----0-------------0-|



CHORUS (x2)
 e|-xxxx------xxxx------|
 B|-xxxx------xxxx------|
 G|-xxxx------xxxx------|
 D|-xxxx------xxxx------|
 A|-xxxx------xxxx------|
Eb|-xxxx------xxxx------|

 e|---------------------------|
 B|---------------------------|
 G|---------------------------|
 D|---------------------------|
 A|-4h6---4h6---4h6-4h6-4h6---|
Eb|-----0-----0-------------0-|



BRIDGE
 e|----------------------------------------------|
 B|----------------------------------------------|
 G|----------------------------------------------|
 D|-----4-----------4----------------------------|  x4
 A|-4-6---6~----4-6---6~--------4----------4-----|
Eb|-------------------------5-7---7~----5-7---7~-|

 e|----------------------|
 B|----------------------|
 G|----------------------|
 D|----------------------| x4
 A|-6-6-6-6------6-6-6-6-|
Eb|----------------------|



VERSE
 e|------|
 B|------|
 G|------|
 D|------|
 A|-6~~--|
Eb|-0~~--|

 e|---------------------------|
 B|---------------------------|
 G|---------------------------|
 D|---------------------------|
 A|-4h6---4h6---4h6-4h6-4h6---|
Eb|-----0-----0-------------0-|

 e|-xxxx----|
 B|-xxxx----|
 G|-xxxx----|
 D|-xxxx----|
 A|-xxxx-6\-|
Eb|-xxxx----|

 e|---------------------------|
 B|---------------------------|
 G|---------------------------|
 D|---------------------------|
 A|-4h6---4h6---4h6-4h6-4h6---|
Eb|-----0-----0-------------0-|



CHORUS
 e|-xxxx------xxxx------xxxx------xxxx---|
 B|-xxxx------xxxx------xxxx------xxxx---|
 G|-xxxx------xxxx------xxxx------xxxx---|
 D|-xxxx------xxxx------xxxx------xxxx---|
 A|-xxxx------xxxx------xxxx------xxxx---|
Eb|-xxxx------xxxx------xxxx------xxxx---|



OUTRO
 e|---------------------------|
 B|---------------------------|
 G|---------------------------|
 D|---------------------------|
 A|-4h6---4h6---4h6-4h6-4h6---|
Eb|-----0-----0-------------0-|

 e|----------------------------------------------|
 B|----------------------------------------------|
 G|----------------------------------------------|
 D|-----4-----------4----------------------------|  x2
 A|-4-6---6~----4-6---6~--------4----------4-----|
Eb|-------------------------5-7---7~----5-7---7~-|

 e|--------------------------------------------------------|
 B|--------------------------------------------------------|
 G|--------------------------------------------------------|
 D|-----1----------4-3----4-6-4-3-4-3----------------------|
 A|-2-4---4----4-6--------------------6-4-1-2----2-1-------|
Eb|--------------------------------------------------3-2-0-|



END
 e|-----------------------------|
 B|-----------------------------|
 G|-----------------------------|
 D|-----------------------------|
 A|-4h6---4h6---4h6-4h6-4h6-6-6-|
Eb|-----0-----0-------------0-0-|

PLEASE RATE :D
Tap to rate this tab
# A B C D E F G H I J K L M N O P Q R S T U V W X Y Z