Song name
# A B C D E F G H I J K L M N O P Q R S T U V W X Y Z

Nick Jonas And The Administration - Last Time Around tab

-------------------------------------------------------------------------------
               LAST TIME AROUD - Nick Jonas & The Administration
-------------------------------------------------------------------------------
Tabbed by:kmi777

This is only what nick plays
I't easier if you tune the 3rd string half step down (Gb)
the verse, the pre-chorus and the chorus is with a little bit of wah-wah effect so 
use it if you can.
Please rate, I think it's 100% right so.

Em:
 e|---|
 B|---|
Gb|---|
 D|-2-|
 A|-2-|
 E|-0-|

G:
 e|---|
 B|---|
Gb|---|
 D|-5-|
 A|-5-|
 E|-3-|

A:
 e|---|
 B|---|
Gb|---|
 D|-7-|
 A|-7-|
 E|-5-|

___________________________________________________________


INTRO
 e|--------------------------|
 B|--------------------------|
Gb|------1-------------------|
 D|--0h2---------------------|
 A|--------------------------|  x32
 E|--------------------------|

VERSE
 e|-------------------------------------------|
 B|-------------------------------------------|
Gb|-------------------------------------------|
 D|-------------------------------------------|
 A|-------------------------------------------|
 E|-0--0-3--3-5--5-3--3-0--0-3--3-5--3--5--3--|  x2

PRE-CHORUS
 e|--------------|
 B|--------------|
Gb|--------------|
 D|--------------|
 A|--------------|
 E|--7-5-3-3/7-5-|

CHORUS
 e|-----------------------------------------|
 B|-----------------------------------------|
Gb|-----------------------------------------|
 D|-----------------------------------------|
 A|-----------------------------------------|
 E|-0--0-3--3-5--5-3--3-0--0-3--3-5--5-3--3-|  x2

INTRO
 e|--------------------------|
 B|--------------------------|
Gb|------1-------------------|
 D|--0h2---------------------|
 A|--------------------------|  x32
 E|--------------------------|

VERSE
 e|-------------------------------------------|
 B|-------------------------------------------|
Gb|-------------------------------------------|
 D|-------------------------------------------|
 A|-------------------------------------------|
 E|-0--0-3--3-5--5-3--3-0--0-3--3-5--3--5--3--|  x2

PRE-CHORUS
 e|--------------|
 B|--------------|
Gb|--------------|
 D|--------------|
 A|--------------|
 E|--7-5-3-3/7-5-|

CHORUS
 e|-----------------------------------------|
 B|-----------------------------------------|
Gb|-----------------------------------------|
 D|-----------------------------------------|
 A|-----------------------------------------|
 E|-0--0-3--3-5--5-3--3-0--0-3--3-5--5-3--3-|  x2

BRIDGE
 e|-----------------------------------------|
 B|-----------------------------------------|
Gb|-----------------------------------------|
 D|-------------------------------------7-5-|
 A|----------5-2-------------------5-2--7-5-|  x4
 E|--0-0h3-5-----3h5p3-0-3-0-0h3-5------5-3-|

INTRO
 e|--------------------------|
 B|--------------------------|
Gb|------1-------------------|
 D|--0h2---------------------|
 A|--------------------------|   x32
 E|--------------------------|

CHORUS
Em - G - A - G x8

INTRO
 e|--------------------------|
 B|--------------------------|
Gb|------1-------------------|
 D|--0h2---------------------|
 A|--------------------------|  x32
 E|--------------------------|

Em

OUTRO
 e|-----------------------------------------|
 B|-----------------------------------------|
Gb|-----------------------------------------|
 D|-------------------------------------7-5-|
 A|----------5-2-------------------5-2--7-5-|  x7
 E|--0-0h3-5-----3h5p3-0-3-0-0h3-5------5-3-|

 e|--------------------------------------------|
 B|--------------------------------------------|
Gb|--------------------------------------------|
 D|-------------------------------------7-5-2~-|
 A|----------5-2-------------------5-2--7-5-2~-|
 E|--0-0h3-5-----3h5p3-0-3-0-0h3-5------5-3-0~-|

Em


Don't forget to rate ;)
Tap to rate this tab
# A B C D E F G H I J K L M N O P Q R S T U V W X Y Z