Guitaretab - guitar tabs
Song name
# A B C D E F G H I J K L M N O P Q R S T U V W X Y Z

Nick Jonas And The Administration - Olive And An Arrow chords

Highlighted       Show chord diagrams
           Olive and an Arrow  Nick Jonas and the Administration

Verse:
e|-------------------------------------------------|
B|-------------------------------------------------|
G|--1--1--2--4--13~--1~--1~--2--4--13~--13h14p13~--|
D|--------------11~----------------11~--11h12p11~--| x2
A|-------------------------------------------------|
E|-------------------------------------------------|

E
We've never been into honesty 
                       A
but promise me you'll let me know when you're lying
E
She wants to be and eagle
                       A
when she's high she can fly no matter what she was trying
E
She'll be the perfect woman
                       A
Then she'll change suddenly you wanna cry from the feeling
E
She's got a heart of gold but
                       A                          C#m
Every now and again she'll turn to grey and you know she gives me
[ Tab from: http://www.guitaretab.com/n/nick-jonas-and-the-administration/213889.html ]
Chorus:
E                              A                      
An olive then an arrow in the back
              B
She leaves me breathless
           G#               F#
Then she kicks me while I'm down
B              C#
She leaves me hoping
      B            A
that my love won't show
       G#            F#
'Cause I know she'll give me
    A   B       E
An olive and an arrow

Verse:
e|-------------------------------------------------|
B|-------------------------------------------------|
G|--1--1--2--4--13~--1~--1~--2--4--13~--13h14p13~--|
D|--------------11~----------------11~--11h12p11~--| x2
A|-------------------------------------------------|
E|-------------------------------------------------|

E
She doesn't like to worry
                        A
but she's afraid of everything that's going on around her
E
I'm just another photo that made its way on her page
                         A
Somehow I stayed but it won't be long

Chorus:
E                              A                      
An olive then an arrow in the back
              B
She leaves me breathless
           G#               F#
Then she kicks me while I'm down
B              C#
She leaves me hoping
      B            A
that my love won't show
       G#            F#
'Cause I know she'll give me
    A   B       E
An olive and an arrow

Solo:
A E (x3?) Then play end of chorus (She leaves me hoping...)

Outro:
A E (x4?) End on E~
Related for Olive And An Arrow chords
Olive And An Arrow chords by Nick Jonas And The Administration