Song name
# A B C D E F G H I J K L M N O P Q R S T U V W X Y Z

Nick Jonas And The Administration - Rose Garden tab

i am 100% sure this is right!!!

e------------------------------------------]
b------------------------------------------]
g-0--0--0--0--0--0--0--0--0--0--0--0--0--0-]repeat though verse and chorus
d-2--2--2----------------------------------]
a----------2--2--2--3--3--3--3--3--3--3--3-]
e------------------------------------------]



riff at intro

e--12--------------12----------------]
b----12--12-10-8-----12--12--10--12--]
g----------------9-------------------]
d------------------------------------]
a------------------------------------]
e------------------------------------]


chorus

e------------------------------------------]
b------------------------------------------]
g-0--0--0--0--0--0--0--0--0--0--0--0--0--0-]
d-2--2--2----------------------------------]
a----------2--2--2--3--3--3--3--3--3--3--3-]
e------------------------------------------]


before verse 2 riff

e--12--------------12-------------------14h15-14h15-14~]
b----12--12-10-8-----12--12--10--12--12----------------]
g----------------9-------------------------------------]
d------------------------------------------------------]
a------------------------------------------------------]
e------------------------------------------------------]

now i hope u enjoy this its actually not hard at all!!



Tap to rate this tab
 
# A B C D E F G H I J K L M N O P Q R S T U V W X Y Z