Song name
# A B C D E F G H I J K L M N O P Q R S T U V W X Y Z

Nick Jonas And The Administration - Rose Garden tab

this is how Nick J. plays it. :D

it's 100% accurate. but if u see something wrong just post a comment. :D

e|-----------------------------------------|
B|-----------------------------------------|
G|---0-0-0---0-0-0-0---0-0-0-0-0-0-0-0-0---|
D|-----------------------------------------|
A|---7-7-7---------------------------------|
E|-----------7-7-7-7---8-8-8-8-8-8-8-8-8---|

just repeat it throughout the song except for the bridge.


the bridge is like this

e|------------------------------------------------|
B|------------------------------------------------|
G|----0--0--0--0--0--0--0--0---0-0-0---0-0-0-0-0--|
D|------------------------------------------------| 4x
A|------------------------------------------------|
E|---10-10-10-10-10-10-10-10---7-7-7---8-8-8-8-8--|


hope u learned something. :D
Tap to rate this tab
# A B C D E F G H I J K L M N O P Q R S T U V W X Y Z