Guitaretab - guitar tabs
Song name
# A B C D E F G H I J K L M N O P Q R S T U V W X Y Z

Nick Jonas And The Administration - In The End tab

                In The End - Nick Jonas & the Administration

Not entirely sure how accurate this is.
I've tabbed it from memory as I don't have my guitar with me.
Leave a comment, if you have any corrections :D

Intro:
e|----------------|
B|--0--5--0--0-5--|
G|--4--5--4--4-5--|
D|----------------|
A|--0--0--0--0-0--|
E|----------------|

Verse:
e|---------------------------------------------------|
B|-0--5--0--5--0--5--0--5--------0--5--------0--0-5--|
G|-4--5--4--5--4--5--4--5--5--7--4--5--5--7--4--4-5--|
D|-------------------------x--x--------x--x----------|
A|-0--0--0--0--0--0--0--0--3--5--0--0--3--5--0--0-0--|
E|---------------------------------------------------|

Chorus:
e|-----------------|    |---------------------------------------|
B|---------0--0-5--|    |-------------------------0--0-5--0--5--|
G|---------4--4-5--|    |-------------------7----4--4-5--4--5--|
D|-5~--3~----------| x2 |--5~--3~--7--5--3--x--6----------------|
A|-5~--3~--0--0-0--|    |--5~--3~--7--5--3--5--6--0--0-0--0--0--|
E|-3~--1~----------|    |--3~--1~--5--3--1-----4----------------|
[ Tab from: http://www.guitaretab.com/n/nick-jonas-and-the-administration/223984.html ]
Verse:
e|---------------------------------------------------|
B|-0--5--0--5--0--5--0--5--------0--5--------0--0-5--|
G|-4--5--4--5--4--5--4--5--5--7--4--5--5--7--4--4-5--|
D|-------------------------x--x--------x--x----------|
A|-0--0--0--0--0--0--0--0--3--5--0--0--3--5--0--0-0--|
E|---------------------------------------------------|

Chorus:
e|-----------------|    |-------------------------------------|
B|---------0--0-5--|    |-------------------------0--5--0--5--|
G|---------4--4-5--|    |-------------------7----4--5--4--5--|
D|-5~--3~----------| x2 |--5~--3~--7--5--3--x--6--------------|
A|-5~--3~--0--0-0--|    |--5~--3~--7--5--3--5--6--0--0--0--0--|
E|-3~--1~----------|    |--3~--1~--5--3--1-----4--------------|

During the keyboard solo:
e|-------------------------------------------------|
B|-0--5--0--5--0--5--0--5--------0--5--------0--5--|
G|-4--5--4--5--4--5--4--5--5--7--4--5--5--7--4--5--|
D|-------------------------x--x--------x--x--------|
A|-0--0--0--0--0--0--0--0--3--5--0--0--3--5--0--0--|
E|-------------------------------------------------|

Verse:
e|-------------------------------------------------|
B|-0--5--0--5--0--5--0--5--------0--5--------0--5--|
G|-4--5--4--5--4--5--4--5--5--7--4--5--5--7--4--5--|
D|-------------------------x--x--------x--x--------|
A|-0--0--0--0--0--0--0--0--3--5--0--0--3--5--0--0--|
E|-------------------------------------------------|

Chorus/Outro:
e|------------------------------------------------|
B|----------------------------------------0~--0~--|
G|-------------------7--------------------4~--4~--|
D|--5~--3~--7--5--3--x--6--7--5--3--7--5----------|
A|--5~--3~--7--5--3--5--6--7--5--3--7--5--0~--0~--|
E|--3~--1~--5--3--1-----4--5--3--1--5--3----------|
Related for In The End tab
In The End chords by Nick Jonas And The Administration