Song name
# A B C D E F G H I J K L M N O P Q R S T U V W X Y Z

Nick Jonas And The Administration - While The World Is Spinning tab

Hey there! First tab so there may be some little mistakes but it's pretty accurate as 
is how Nick J plays it. I figured it out by ear too.

Intro/Verses
--------------------------------|
--------------------------------|
----------------------6---67----|
---4---45---5---55----x---xx----|   x5
---x---xx---x---xx--5-5-5-55----|
-3-3-3-33-3-3-3-33--------------|

Chorus
-----------------------------------    ----------------------------|
-----------------------------------    ----------------------------|
-5555555555555555----------77777777    ------------------55555555--|
-5555555555555555-55555555-77777777 x3 -7777777777777777-55555555--|
-3333333333333333-55555555-55555555    -7777777777777777-33333333--|
------------------33333333---------    -5555555555555555-----------|
"So try..."     "To look" "Tell me.."   "Tell me do..."       "While the.."
"Surprised.."   "Cause.." "Everyone.."
"Lie..."        "Do you..""To make.."

Interlude
-----------------------------------    ----------------------------|
-----------------------------------    ----------------------------|
-5555555555555555----------77777777    ------------------55555555--|
-5555555555555555-55555555-77777777 x2 -7777777777777777-55555555--|
-3333333333333333-55555555-55555555    -7777777777777777-33333333--|
------------------33333333---------    -5555555555555555-----------|

-----------------------------------------------------------------------|
-----------------------------------------------------------------------|
----------------------6---67--------------------------------------7----|
---4---45---5---55----x---xx----4---45---5---55-------5-----------7----|
---x---xx---x---xx--5-5-5-55----x---xx---x---xx-------5-----------5----|
-3-3-3-33-3-3-3-33------------3-3-3-33-3-3-3-33-------3----------------|
                                                 "Nothing.."   "Everyone.."

---------------------------------------------------------------|
---------------------------------------------------------------|
-5555555555555555----------77777777------------------55555555--|
-5555555555555555-55555555-77777777-7777777777777777-55555555--|
-3333333333333333-55555555-55555555-7777777777777777-33333333--|
------------------33333333----------5555555555555555-----------|

Chorus/Outro
-----------------------------------    ----------------------------|
-----------------------------------    ----------------------------|
-5555555555555555----------77777777    ------------------55555555--|
-5555555555555555-55555555-77777777 x3 -7777777777777777-55555555--| x2
-3333333333333333-55555555-55555555    -7777777777777777-33333333--|
------------------33333333---------    -5555555555555555-----------|

-----------|
-----------|
-----------|
---4---45--|
---x---xx--|
-3-3-3-33--|
Tap to rate this tab
# A B C D E F G H I J K L M N O P Q R S T U V W X Y Z