Song name
# A B C D E F G H I J K L M N O P Q R S T U V W X Y Z

Nick Jonas And The Administration - Rose Garden tab

Tabbed by:kmi777

This is tab is only what nick plays and just a little solo of sonny. Hope you like 
it, and don't forget to rate. If you have 

any question you can go www.youtube.com/user/kmi777 and ask me :) or just check it out :)


INTRO
e|---------------------------------|
B|-0-0-0-0-0-0-0-0-0-0-0-0-0-0-0-0-|
G|-0-0-0-0-0-0-0-0-0-0-0-0-0-0-0-0-|
D|---------------------------------| x2
A|-7-7-7-7-------------------------|
E|---------7-7-7-7-8-8-8-8-8-8-8-8-|

INTRO SOLO (with wah-wah effect)
Guitar 1
e|-10h12-----------------------|
B|-------12--10h12-10-8h10p8---|
G|---------------------------9-|
D|-----------------------------|
A|-----------------------------|
E|-----------------------------|

e|-10h12--------------------------|
B|-------12--10h12-10-8h10-12-12--|
G|--------------------------------|
D|--------------------------------|
A|--------------------------------|
E|--------------------------------|

Guitar 2
e|---------------------------------|
B|-0-0-0-0-0-0-0-0-0-0-0-0-0-0-0-0-|
G|-0-0-0-0-0-0-0-0-0-0-0-0-0-0-0-0-|
D|---------------------------------| x2
A|-7-7-7-7-------------------------|
E|---------7-7-7-7-8-8-8-8-8-8-8-8-|


VERSE
e|---------------------------------|
B|-0-0-0-0-0-0-0-0-0-0-0-0-0-0-0-0-|
G|-0-0-0-0-0-0-0-0-0-0-0-0-0-0-0-0-|
D|---------------------------------| x8
A|-7-7-7-7-------------------------|
E|---------7-7-7-7-8-8-8-8-8-8-8-8-|


CHORUS
e|---------------------------------|
B|-0-0-0-0-0-0-0-0-0-0-0-0-0-0-0-0-|
G|-0-0-0-0-0-0-0-0-0-0-0-0-0-0-0-0-|
D|---------------------------------| x4
A|-7-7-7-7-------------------------|
E|---------7-7-7-7-8-8-8-8-8-8-8-8-|


INTRO 2
e|---------------------------------|
B|-0-0-0-0-0-0-0-0-0-0-0-0-0-0-0-0-|
G|-0-0-0-0-0-0-0-0-0-0-0-0-0-0-0-0-|
D|---------------------------------| x2
A|-7-7-7-7-------------------------|
E|---------7-7-7-7-8-8-8-8-8-8-8-8-|


VERSE 2
e|---------------------------------|
B|-0-0-0-0-0-0-0-0-0-0-0-0-0-0-0-0-|
G|-0-0-0-0-0-0-0-0-0-0-0-0-0-0-0-0-|
D|---------------------------------| x4
A|-7-7-7-7-------------------------|
E|---------7-7-7-7-8-8-8-8-8-8-8-8-|


CHORUS 2
e|---------------------------------|
B|-0-0-0-0-0-0-0-0-0-0-0-0-0-0-0-0-|
G|-0-0-0-0-0-0-0-0-0-0-0-0-0-0-0-0-|
D|---------------------------------| x4
A|-7-7-7-7-------------------------|
E|---------7-7-7-7-8-8-8-8-8-8-8-8-|


BRIDGE
e|---------------|
B|-0~-----0~-0~--|
G|-0~-----0~-0~--|
D|---------------| x4
A|---------------|
E|-10~----7~-8~--|


SOLO
e|---------------------------------|
B|-0-0-0-0-0-0-0-0-0-0-0-0-0-0-0-0-|
G|-0-0-0-0-0-0-0-0-0-0-0-0-0-0-0-0-|
D|---------------------------------| x4
A|-7-7-7-7-------------------------|
E|---------7-7-7-7-8-8-8-8-8-8-8-8-|


CHORUS 3
e|---------------------------------|
B|-0-0-0-0-0-0-0-0-0-0-0-0-0-0-0-0-|
G|-0-0-0-0-0-0-0-0-0-0-0-0-0-0-0-0-|
D|---------------------------------| x4
A|-7-7-7-7-------------------------|
E|---------7-7-7-7-8-8-8-8-8-8-8-8-|


SOLO 2
e|---------------------------------|
B|-0-0-0-0-0-0-0-0-0-0-0-0-0-0-0-0-|
G|-0-0-0-0-0-0-0-0-0-0-0-0-0-0-0-0-|
D|---------------------------------| x4
A|-7-7-7-7-------------------------|
E|---------7-7-7-7-8-8-8-8-8-8-8-8-|


OUTRO
e|-------------|
B|-0~--0~--0~--|
G|-0~--0~--0~--|
D|-------------|
A|-7~----------|
E|-----7~--8~--|

DON'T FORGET TO RATE :)
Tap to rate this tab
 
# A B C D E F G H I J K L M N O P Q R S T U V W X Y Z