Song name
# A B C D E F G H I J K L M N O P Q R S T U V W X Y Z

Nick Jonas And The Administration - Vespers Goodbye tab

Well, I tabbed the Riffs that Sonny plays during the second verse.

Don't know if they're 100% accurate.

----------------------------|
----------------------------|
-6h7p6-4-4------------------|
-----------7-4-------4-7~~~-|
---------------7-4-7--------|
----------------------------|

---------------------------|
---------------------------|
---------------------------|
--4h6h9-6p4----------------|
---------------------------|
---------------------------|

---------------------------|
---------------------------|
--7-9/10\7-----------------|
---------------------------|
---------------------------|
---------------------------|

-----6---------------------|
--6h8--6-6h8---------------|
-------------7-------------|
---------------------------|
---------------------------|
---------------------------|

---------------------------|
--7b7b-p4------------------|
--7b7b-p4------------------|
--7b7b-p4-------4-7--------|
----------7-4-7------------|
---------------------------|
Tap to rate this tab
 
# A B C D E F G H I J K L M N O P Q R S T U V W X Y Z