Nick Jonas And The Administration - London Foolishly tab

This is a new song that nick played on his live chat so I don't know if it is for the 
or for the jonas brothers, but I uploaded it here.
tabbed by: kmi777
youtube account: www.youtube.com/user/kmi777

PLEASE RATE AND COMMENT


INTRO
e|---------------------------------|
B|---0---0---0---0---0---0---0---0-|
G|---0---0---0---0---0---0---0---0-| x2
D|---------------------------------|
A|-7---9--10--12-------------------|
E|-----------------8---8---8---8---|

VERSE
e|---------------------------------|
B|---0---0---0---0---0---0---0---0-|
G|---0---0---0---0---0---0---0---0-| x5
D|---------------------------------|
A|-7---9--10-----------------------|
E|-------------7---8---8---8---8---|

CHORUS
e|-----------------------------------------------------------------|
B|---0---0---0---0---0---0---0-------0---0---0---0---0---0---0---0-|
G|---0---0---0---0---0---0---0-------0---0---0---0---0---0---0---0-| x3
D|-----------------------------------------------------------------|
A|-------------------------------------------------5---5---5---5---|
E|-5---5---5---5---0---0---0---0-2-3---3---3---3-------------------|

e|---------------------------------------------------------|
B|---0---0---0---0---0---0---0---0---0---0---0---0---0---0-|
G|---0---0---0---0---0---0---0---0---0---0---0---0---0---0-|
D|---------------------------------------------------------|
A|-3---3---3---3---5---5---5---5---3---3---3---3-----5---6-|
E|---------------------------------------------------------|

INTRO 2
e|---------------------------------|
B|---0---0---0---0---0---0---0---0-|
G|---0---0---0---0---0---0---0---0-| x2
D|---------------------------------|
A|-7---9--10-----------------------|
E|-------------7---8---8---8---8---|

VERSE
e|---------------------------------|
B|---0---0---0---0---0---0---0---0-|
G|---0---0---0---0---0---0---0---0-| x4
D|---------------------------------|
A|-7---9--10-----------------------|
E|-------------7---8---8---8---8---|

CHORUS
e|-----------------------------------------------------------------|
B|---0---0---0---0---0---0---0-------0---0---0---0---0---0---0---0-|
G|---0---0---0---0---0---0---0-------0---0---0---0---0---0---0---0-| x2
D|-----------------------------------------------------------------|
A|-------------------------------------------------5---5---5---5---|
E|-5---5---5---5---0---0---0---0-2-3---3---3---3-------------------|

e|-----------------------------------------------------|
B|---0---0---0---0---0---0---0---0---0---0---0---0---0-|
G|---0---0---0---0---0---0---0---0---0---0---0---0---0-|
D|-----------------------------------------------------|
A|-3---3---3---3---5---5---5---5---3---3---3---3-----5-|
E|-----------------------------------------------------|

BRIDGE
e|---------------------------------|
B|---0---0---0---0---0---0---0---0-|
G|---0---0---0---0---0---0---0---0-| x4
D|---------------------------------|
A|-7---9--10-----------------------|
E|-------------7---8---8---8---8---|

CHORUS
e|-----------------------------------------------------------------|
B|---0---0---0---0---0---0---0-------0---0---0---0---0---0---0---0-|
G|---0---0---0---0---0---0---0-------0---0---0---0---0---0---0---0-| x2
D|-----------------------------------------------------------------|
A|-------------------------------------------------5---5---5---5---|
E|-5---5---5---5---0---0---0---0-2-3---3---3---3-------------------|

e|---------------------------------------------------------|
B|---0---0---0---0---0---0---0---0---0---0---0---0---0---0-|
G|---0---0---0---0---0---0---0---0---0---0---0---0---0---0-|
D|---------------------------------------------------------|
A|-3---3---3---3---5---5---5---5---3---3---3---3-----5---6-|
E|---------------------------------------------------------|

OUTRO
e|---------------------------------|
B|---0---0---0---0---0---0---0---0-|
G|---0---0---0---0---0---0---0---0-|
D|---------------------------------|
A|-7---9--10-----------------------|
E|-------------7---8---8---8---8---|

e|-------------------|
B|---0---0---0---0-0-|
G|---0---0---0---0-0-|
D|-------------------|
A|-7---9--10---------|
E|-------------7---8-|

DON'T FORGET TO RATE
Tap to rate this tab
 
# A B C D E F G H I J K L M N O P Q R S T U V W X Y Z