Nick Jonas And The Administration - Vespers Goodbye tab

I've improved my previous tab of this. Minor changes, but will sound much better.

-------------------------------|
-------------------------------|
---6h7p6--4-4------------------|
---------------7-4-------4-7~--|
-------------------7-4-7-------|
-------------------------------|

-------------------------------|
-------------------------------|
--------4----------------------|
----4h6---6-4------------------|
-------------------------------|
-------------------------------|

-------------------------------|
-------------------------------|
----6~-6/9/10\6----------------|
-------------------------------|
-------------------------------|
-------------------------------|

------6------------------------|
-6-6h8--6-6h8------------------|
-------------7~----------------|
-------------------------------|
-------------------------------|
-------------------------------|

-------------------------------|
-------------------------------|
----6/7-7-4--------------------|
------------7------------------|
--------------7-4-7------------|
--------------------7-5--------|
Tap to rate this tab
 
# A B C D E F G H I J K L M N O P Q R S T U V W X Y Z