Nick Jonas And The Administration - Vespers Goodbye tab

-------------------------------------------------------------------------------
			     Vesper's Goodbye - NJATA
-------------------------------------------------------------------------------
Tabbed by: Samara
Email: samarasiddiqi@hotmail.com

Tuning: Standard

So this is just the tab for the little guitar riffs that you can hear in the back of the
during the second part of the second verse.  I looked for these tabs a long time ago
I was too lazy/incapable of writing them up myself but now it's been a couple of months 
well, here you go. This is my first tab, btw.

1:55
e|--------------------------------------------------------------------------|
B|--------------------------------------------------------------------------|
G|--------------------------------------------------------------------------|
D|-----7/9--7---------------------------------------------------------------|
A|-7h9--------9p7~----------------------------------------------------------|
E|--------------------------------------------------------------------------|

2:00
e|--------------------------------------------------------------------------|
B|--------------------------------------------------------------------------|
G|------9h11----------------------------------------------------------------|
D|-9/11------11~------------------------------------------------------------|
A|--------------------------------------------------------------------------|
E|--------------------------------------------------------------------------|

2:07
e|--------------------------------------------------------------------------|
B|--------------------------------------------------------------------------|
G|-9h11/14-11-9h11----------------------------------------------------------|
D|-----------------11~------------------------------------------------------|
A|--------------------------------------------------------------------------|
E|--------------------------------------------------------------------------|

2:14  (Not sure about this part)
e|--------------------------------------------------------------------------|
B|--------------------------------------------------------------------------|
G|--------------------------------------------------------------------------|
D|-9/11--9------------------------------------------------------------------|
A|----------11p9-7-------0--------------------------------------------------|
E|------------------9-7-----------------------------------------------------|
Tap to rate this tab
 
# A B C D E F G H I J K L M N O P Q R S T U V W X Y Z