Song name
# A B C D E F G H I J K L M N O P Q R S T U V W X Y Z

Nick Jonas And The Administration - In The End tab

-------------------------------------------------------------------------------
			     IN THE END - Nick Jonas & The Administration
-------------------------------------------------------------------------------
Tabbed by: kasiajonas
Email: popolsku8@gmail.com

Tuning: Standard

That's how Nick plays it so I hope you have fun with it :)


Intro:
e|---------------------------------|
B|-4-------4-----------------------|
G|---0-5-----0-5-------------------|
D|---------------------------------|
A|---------------------------------|
E|-5-5-5---5-5-5-------------------|

Verse:
e|---------------------------------------------------------------------------|
B|---------------------------------------------------------------------------|
G|--0-5--0-5--0-5--0-5-------------------------------------------------------|
D|---------------------------------------------------------------------------|
A|---------------------------------------------------------------------------|
E|--5-5--5-5--5-5--5-5-------------------------------------------------------|

Chorus:
e|--------------------------------------------------------------------------------------|
B|--6-7-4------6-7-4----------1--4----------1-4-------------------4------4------4-------|
G|--------0-5--------0-5--5-3------0-5--5-3-----0-5--5-3-5-5-3--5---5-5----0-5----0-5---|
D|--------------------------------------------------------------------------------------|
A|--4-5--------4-5------------2-------------2-------------------------------------------|
E|------5-5-5------5-5-5--3-1----5-5-5--3-1---5-5-5--3-1-5-3-1--3-5-5-5--5-5-5--5-5-5---|

Verse:
e|---------------------------------------------------------------------------|
B|---------------------------------------------------------------------------|
G|--0-5--0-5--0-5--0-5-------------------------------------------------------|
D|---------------------------------------------------------------------------|
A|---------------------------------------------------------------------------|
E|--5-5--5-5--5-5--5-5-------------------------------------------------------|

Chorus:
e|--------------------------------------------------------------------------------------|
B|--6-7-4------6-7-4----------1--4----------1-4-------------------4------4------4-------|
G|--------0-5--------0-5--5-3------0-5--5-3-----0-5--5-3-5-5-3--5---5-5----0-5----0-5---|
D|--------------------------------------------------------------------------------------|
A|--4-5--------4-5------------2-------------2-------------------------------------------|
E|------5-5-5------5-5-5--3-1----5-5-5--3-1---5-5-5--3-1-5-3-1--3-5-5-5--5-5-5--5-5-5---|

e|---------------------------------|
B|-4-------4-----------------------|
G|---0-5-----0-5-------------------|
D|---------------------------------|  x4
A|---------------------------------|
E|-5-5-5---5-5-5-------------------| 


Verse:
e|---------------------------------------------------------------------------|
B|---------------------------------------------------------------------------|
G|--0-5--0-5--0-5--0-5-------------------------------------------------------|
D|---------------------------------------------------------------------------|
A|---------------------------------------------------------------------------|
E|--5-5--5-5--5-5--5-5-------------------------------------------------------|

Chorus:
e|-------------------------------------------------------------------|
B|----------1-4----------1-4-------------------4---------------------|
G-----5-3-----0-5--5-3-----0-5--5-3-5-5-3--5---3-5--3-5-5-5-5--------|
D|-------------------------------------------------------------------|
A|----------2------------2-------------------------------------------|
E|----3-1---5-5-5--3-1---5-5-5--3-1-5-3-1--3-5-1-3--1-3-3-5-5--------|
Tap to rate this tab
 
# A B C D E F G H I J K L M N O P Q R S T U V W X Y Z