Song name
# A B C D E F G H I J K L M N O P Q R S T U V W X Y Z

Nick Jonas And The Administration - Vespers Goodbye tab

I think this is 100% correct.
Intro
e --------------------------|
B --------------------------|
G --6---4--2--6---4--2------|
D --------------------------|x2
A --------------------------|
E --5---3--1--5---3--1------|

Verse
e --------------------------|
B --------------------------|
G --6---4--2--6---4--2------|
D --------------------------|x2
A --------------------------|
E --5---3--1--5---3--1------|

Chorus
e --------------------------|
B --------------------------|
G --6---4--2--6---4--2------|
D --------------------------|x2
A --------------------------|
E --5---3--1--5---3--1------|

Verse
e --------------------------|
B --------------------------|
G --6---4--2--6---4--2------|
D --------------------------|x2
A --------------------------|
E --5---3--1--5---3--1------|

Chorus
e --------------------------|
B --------------------------|
G --6---4--2--6---4--2------|
D --------------------------|x2
A --------------------------|
E --5---3--1--5---3--1------|

Outro
e --------------------------|
B --------------------------|
G --6---4--2--6---4--2------|
D --------------------------|
A --------------------------|
E --5---3--1--5---3--1------|
Tap to rate this tab
 
# A B C D E F G H I J K L M N O P Q R S T U V W X Y Z