Song name
# A B C D E F G H I J K L M N O P Q R S T U V W X Y Z

Nick Jonas And The Administration - In The End tab

Nick Jonas & The Administration - In The End
This is my first tab but I think it sounds okey so please try it out!
I've tabed it with help from the 
http://www.youtube.com/watch?v=IYJ2nnj88po version,
so if you want to play along use that songversion. 
NOTE: Use fingerplucking, even for the powerchords.
I only play the 4 middle strings on the powerchords, but it's up to you.
Tab made by Caroline Andersson Februari 2012. Enjoy!



Intro
 e|----------------------------------------------------------------------------|
 B|--------------------------------10-8~---------------------------------------|
 G|-4~-5~-4~-4-5~-5-7~-5------5-7~---------------------------------------------|
 D|----------------------7-5~--------------------------------------------------|
 A|----------------------------------------------------------------------------|
 E|-5~-5~-5~-5-5~--------------------------------------------------------------|

  Vers
 e|----------------------------------------------------------------------------|
 B|----------------------------------------------------------5~-7~-------------|
 G|-4~-5~-4~-4-5~--4~-5~-4~-5~-4~-5~-4~-5~--5~-7~--4~-4-5~----------4~-4-5~----|
 D|----------------------------------------------------------------------------|
 A|-----------------------------------------3~-5~------------3~-5~-------------|
 E|-5~-5~-5~-5-5~--5~-5~-5~-5~-5~-5~-5~-5~---------5~-5-5~----------5~-5-5~----|

  Chorus
 e|-3-1~---------------3-1~--------------3----------3-1~--5~-3~----------------|
 B|-3-1~---------------3-1~--------------3--1~----1-3-1~--5~-3~----------------|
 G|-3-2~--1~--4~-4-5~--3-2~--1~--4~-4-5~-3--2~-1~-2-4-2~--5~-3~--4~-4-5~-------|
 D|-5-3~--2~-----------5-3~--2~----------5--2~----2-5-3~--7~-5~----------------|
 A|-5-3~--2~-----------5-3~--2~----------5-----2~---5-3~--7~-5~----------------|
 E|-3-1~------5~-5-5~--3-1~------5~-5-5~-3----------3-1~--5~-3~--5~-5-5~-------|

  Vers 
 e|----------------------------------------------------------------------------|
 B|---------------------------------------------------5~-7~--------------------|
 G|-4~-4-5~-4~-5~-4~-5~-4~-5~-4~-5~---5~-7~--4~-4-5~---------4~-4-5~-----------|
 D|----------------------------------------------------------------------------|
 A|-----------------------------------3~-5~-----------3~-5~--------------------|
 E|-5~-5-5~-5~-5~-5~-5~-5~-5~-5~-5~----------5~-5-5~---------5~-5-5~-----------|

 
  Chorus 
 e|-3-1~---------------3-1~--------------3----------3-1~--5~-3~----------------|
 B|-3-1~---------------3-1~--------------3--1~----1-3-1~--5~-3~----------------|
 G|-3-2~--1~--4~-4-5~--3-2~--1~--4~-4-5~-3--2~-1~-2-4-2~--5~-3~--4~-4-5~-------|
 D|-5-3~--2~-----------5-3~--2~----------5--2~----2-5-3~--7~-5~----------------|
 A|-5-3~--2~-----------5-3~--2~----------5-----2~---5-3~--7~-5~----------------|
 E|-3-1~------5~-5-5~--3-1~------5~-5-5~-3----------3-1~--5~-3~--5~-5-5~-------|

  Solo Break 
 e|----------------------------------------------------------------------------|
 B|---------------------------------------------------5~-7~--------------------|
 G|-4~-4-5~-4~-5~-4~-5~-4~-5~-4~-5~---5~-7~--4~-4-5~---------4~-4-5~-----------|
 D|----------------------------------------------------------------------------|
 A|-----------------------------------3~-5~-----------3~-5~--------------------|
 E|-5~-5-5~-5~-5~-5~-5~-5~-5~-5~-5~----------5~-5-5~---------5~-5-5~-----------|

  Vers
 e|----------------------------------------------------------------------------|
 B|----------------------------------------------------------------------------|
 G|-4~-5~-4~-5~-4~-5~-4~-5~----------------------------------------------------|
 D|----------------------------------------------------------------------------|
 A|----------------------------------------------------------------------------|
 E|-5~-5~-5~-5~-5~-5~-5~-5~----------------------------------------------------|

  Chorus/Ending
 e|-3-1~---------------3-1~--------------3-1~-------3-1~--5~-3~ 7~-5~-5~-3~----|
 B|-3-1~---------------3-1~--------------3-1~-----1-3-1~--5~-3~-7~-5~-5~-3~----|
 G|-3-2~--1~--4~-4-5~--3-2~--1~-4~-4-5~--3-2~--1~-2-4-2~--5~-3~-7~-5~-5~-3~----|
 D|-5-3~--2~-----------5-3~--2~----------5-3~--2~-2-5-3~--7~-5~-9~-7~-7~-5~----| 
 A|-5-3~--2~-----------5-3~--2~----------5-3~--2~---5-3~--7~-5~-9~-7~-7~-5~----|
 E|-5-1~------5~-5-5~--3-1~-----5~-5-5~--3-1~-------3-1~--5~-3~-7~-5~-5~-5~----| End on Am

Tap to rate this tab
# A B C D E F G H I J K L M N O P Q R S T U V W X Y Z