Nick Jonas - Give Love A Try tab

X means slap the strings..

Intro:
e------X-----X------X-----X------X-----X------X-----X-|
B------X-----X------X-----X------X-----X------X-----X-|
G----4-X---5-X----4-X---5-X----4-X---5-X----4-X---5-X-|
D------X-----X------X-----X------X-----X------X-----X-|
A--3---X---3-X--3---X---3-X--0---X---0-X--0---X---0-X-|
E------X-----X------X-----X------X-----X------X-----X-|

e------X-----X------X-----X------X-----X------X-----X-|
B------X-----X------X-----X------X-----X------X-----X-|
G----5-X-5p4-X----2-X-2p0-X----4-X---5-X----4-X---5-X-|
D------X-----X------X-----X------X-----X------X-----X-|
A------X-----X------X-----X--3---X---3-X--3---X---3-X-|
E--3---X-3---X--1---X-1---X------X-----X------X-----X-|

Verse:
e------X-----X------X-----X------X-----X------X-----X-|
B------X-----X------X-----X------X-----X------X-----X-|
G----4-X---5-X----4-X---5-X----4-X---5-X----4-X---5-X-|
D------X-----X------X-----X------X-----X------X-----X-|
A--3---X---3-X--3---X---3-X--0---X---0-X--0---X---0-X-|
E------X-----X------X-----X------X-----X------X-----X-|

e------X-----X------X-----X------X-----X------X-----X-|
B------X-----X------X-----X------X-----X------X-----X-|
G----5-X-5p4-X----2-X-2p0-X----4-X---5-X----4-X---5-X-|
D------X-----X------X-----X------X-----X------X-----X-|
A------X-----X------X-----X--3---X---3-X--3---X---3-X-|
E--3---X-3---X--1---X-1---X------X-----X------X-----X-|

Chorus:

e------X-----X------X-----X------X-----X------X-----X-|
B------X-----X------X-----X------X-----X------X-----X-|
G----0-X--0--X----0-X--0--X----3-X--3--X----9-X--9--X-|
D------X-----X------X-----X------X-----X------X-----X-|
A--6---X--6--X--3---X--3--X--3---X--3--X--8---X--8--X-|
E------X-----X------X-----X------X-----X------X-----X-|

e------X-----X------X-----X------X-----X------X-----X-|
B------X-----X------X-----X------X-----X------X-----X-|
G----0-X--0--X----0-X--0--X----3-X--3--X----9-X--9--X-|
D------X-----X------X-----X------X-----X------X-----X-|
A--6---X--6--X--3---X--3--X--3---X--3--X--8---X--8--X-|
E------X-----X------X-----X------X-----X------X-----X-|

e------X-----X------X-----X------X-----X------X-----X-----X-|
B------X-----X------X-----X------X-----X------X-----X-----X-|
G------X-----X----0-X--0--X----3-X--3--X----9-X--9--X-----X-|
D----6-X--6--X------X-----X------X-----X------X-----X--6~-X-|
A--8---X--8--X--3---X--3--X--3---X--3--X--8---X--8--X-----X-|
E------X-----X------X-----X------X-----X------X-----X-----X-|

same whole song.......



hope you like it... played it by ear... ^^


Tap to rate this tab
 
# A B C D E F G H I J K L M N O P Q R S T U V W X Y Z