Song name
# A B C D E F G H I J K L M N O P Q R S T U V W X Y Z

Nick Jonas - Who I Am tab

-----------------------------------------------------------------------------
			     WHO I AM - Nick Jonas & The Administration
-----------------------------------------------------------------------------
Tabbed by: ilex3

NOTE: IM 110% SURE THIS IS PERFECT!! I WATCHED A BUNCH OF VIDEOS OF NICK PLAYING 
IT AND HE PLAYS IT LIKE THIS! [: 

Tuning: EADGBe

e|--------5------------------------|
B|--7-5-7----------4/2-------------|
G|----------6~-4-6-----2-2h4/6\4p2-|
D|---------------------------------|
A|---------------------------------|
E|---------------------------------|

e|--------5------------------------|
B|--7-5-7----------4/2-------------|
G|----------6~-4-6-----2-2h4/6\4p2-|
D|---------------------------------|
A|---------------------------------|
E|---------------------------------|

e|-----------7h9-------10h12-------12bbr-|
B|-7h8-7-5-------7h9p7-------12-10-------|
G|---------8-----------------------------|
D|---------------------------------------|
A|---------------------------------------|
E|---------------------------------------|

************************************

| /   slide up
| \   slide down
| h   hammer-on
| p   pull-off
| ~   vibrato
| b   Bend
| br  Bend release

************************************
Tap to rate this tab
 
# A B C D E F G H I J K L M N O P Q R S T U V W X Y Z