Song name
# A B C D E F G H I J K L M N O P Q R S T U V W X Y Z

Nick Jonas - Introducing Me tab

Capo 4

(Relative to capo)

       (G chord)
E|----------------|
B|---0----3-0-----|
G|------0------2-0|
D|----------------|
A|----------------|
E|--3-------------|


       (G chord)
E|----------------|
B|---0----3-0-----|
G|------0------2-0|
D|----------------|
A|----------------|
E|--3-------------|
Tap to rate this tab
# A B C D E F G H I J K L M N O P Q R S T U V W X Y Z