Guitaretab - guitar tabs
Song name
# A B C D E F G H I J K L M N O P Q R S T U V W X Y Z

Nick Lachey - Resolution tab

Artist: Emigrate
Song: Resolution
Album: Emigrate (2007)
Tabbed by: Rammkopf and me

Drop D


E|---------------------------|
B|---------------------------|
G|---------------------------|
D|------11b12(slow relase)---|
A|---------------------------|
D|---------------------------|

E|-------------------------------7~------------------7~-6^-----------------|
B|---8^~-7~---7^~-8^~-7^---7^~-7~-----8p7h8-8-7----7~------8--7------------|
G|----------9-----------9----------------------9---------------9~----------|
D|-------------------------------------------------------------------------|
A|-------------------------------------------------------------------------|
D|-------------------------------------------------------------------------|

E|-------------------------------------------------------------------------|
B|---15-17b19----19---19-19---19---19-19---19-19---19-19--19-19r17---------|
G|-------------------------------------------------------------------------|
D|-------------------------------------------------------------------------|
A|-------------------------------------------------------------------------|
D|-------------------------------------------------------------------------|
[ Tab from: http://www.guitaretab.com/n/nick-lachey/145291.html ]
E|----------------------------------------------------|
B|----------------------------------------------------|
G|---16~--19b21--(chopped by a noise gate)--18~-------|
D|----------------------------------------------------|
A|----------------------------------------------------|
D|----------------------------------------------------|

E|-------------------------------------------------------------------------|
B|-------------------------------------------------------------------------|
G|---14~--13~--------------------------------------------------------------|
D|-------------11~-----9~--7~--6~----4~--6~--7~---7/9-9~---9/11~--/2-------|
A|-------------------------------------------------------------------------|
D|-------------------------------------------------------------------------|


Rhythm --->  

4x Main Riff

E|-------------------------------------|
B|-------------------------------------|
G|-------------------------------------|
D|---4-5-4-2-4~---4-5-4-2-4~--2-4-4-4--|
A|---4-5-4-2-4~---4-5-4-2-4~--2-4-4-4--|
D|---4-5-4-2-4~---4-5-4-2-4~--2-4-4-4--|

+

Post-Chorus

E|-----------------------|          E|----------------------------------|
B|-----------------------|          B|----------------------------------|
G|-----------------------|          G|----------------------------------|
D|---0------2------4-----| x3       D|-5-5-5-5-5-5-5-5-5-5-5-5-5-5-5-5--|
A|---0------2------4-----|          A|-5-5-5-5-5-5-5-5-5-5-5-5-5-5-5-5--|
D|---0------2------4-----|          D|-5-5-5-5-5-5-5-5-5-5-5-5-5-5-5-5--|
       


have fun;)

     
Related for Resolution tab
Advertisement will be closed in 10 seconds