Song name
# A B C D E F G H I J K L M N O P Q R S T U V W X Y Z

Nick Mulvey - Cucurucu tab

-----------------------------------------------------------------
Nick Mulvey - Cucurucu
-----------------------------------------------------------------

Tabbed by: Twheel

Tuning: EADGBE
Capo: 3 or 4 depending on how old the youtube video is. Capo 2 for the studio (EP) version.

So there isn't much structure to the tab in terms of timing. Sorry about that, but this
was quite a quick (and rushed) tab. To figure out timings please check out the youtube
videos below. Any corrections please add to the comments. The version tabbed here is the 
EP edition (however, this doesn't have a video of Nick playing, so may be difficult to
pick up the strumming pattern.)

http://www.youtube.com/watch?v=IUyifq_X1J4    (EP edition, newest. Capo 2)
http://www.youtube.com/watch?v=pfUjOfUyuak   (Livemusic Sessions, old. Capo 3)
http://www.youtube.com/watch?v=l-bRR3MdiaE   (Old version. Capo 4)

http://www.nickmulvey.com


INTRO -----------------------------------------------------------------


     strum x10   strum x6            strum x6                 strum x5
E|--0-----------0-------------------0------------------------3-------------------|
B|--1-----------1-------------------0------------------------3-------------------|
G|--0-----------2-------2-----------0------------------------0------------------0|
D|--h2----------4----------4--0-----2-----------0---0h2p-----0-----------0--0h2--|
A|--3--------X--X----------------2--2------0-h2----------2---2-------0h2---------|
E|--X--------3--3----------------0--0------------------------3-------------------|

     strum x10   strum x6            strum x6                 strum x5
E|--0-----------0-------------------0------------------------0-------------------|
B|--1-----------1-------------------0------------------------0-------------------|
G|--0-----------2-------2-----------0------------------------0-------------------|
D|--h2----------4----------4--0-----2-----------0---0h2p-----2-------------------|
A|--3--------X--X----------------2--2------0-h2----------2---2-------------------|
E|--X--------3--3----------------0--0------------------------0-------------------|


VERSE -----------------------------------------------------------------


     strum once   "softly in the evening dust, a woman is singing to me. Taking me..."
e|--2----------------------------------------------------------------------------|
B|--0----------------------------------------------------------------------------|
G|--2----------------------------------------------------------------------------|
D|--1----------------------------------------------------------------------------|
A|--2----------------------------------------------------------------------------|
E|--X----------------------------------------------------------------------------|

     strum once   "...back down the vista of my years, until I see"
e|--0----------------------------------------------------------------------------|
B|--1----------------------------------------------------------------------------|
G|--0----------------------------------------------------------------------------|
D|--2----------------------------------------------------------------------------|
A|--0----------------------------------------------------------------------------|
E|--X----------------------------------------------------------------------------|

     strum once
e|--2----------------------------------------------------------------------------|
B|--0----------------------------------------------------------------------------|
G|--2----------------------------------------------------------------------------|
D|--1----------------------------------------------------------------------------|
A|--2----------------------------------------------------------------------------|
E|--X----------------------------------------------------------------------------|

     start gentle strumming
e|--0----------------------------------------------------------------------------|
B|--1----------------------------------------------------------------------------|
G|--0----------------------------------------------------------------------------|
D|--2----------------------------------------------------------------------------|
A|--0----------------------------------------------------------------------------|
E|--X----------------------------------------------------------------------------|


CHORUS -----------------------------------------------------------------

   "cucurucu cucurucu cucurucu-oo"

e|--0--------0--------0--------2-------------------------------------------------|
B|--1--------1--------0--------2-------------------------------------------------|
G|--0--------2--------0--------0-------------------------------------------------|
D|--2--------4--------2--------0-------------------------------------------------|
A|--3--------X--------2--------2-------------------------------------------------|
E|--3--------3--------0--------3-------------------------------------------------|

   "cucurucu cucurucu cucurucu-oo"

e|--0--------0--------0--------2-------------------------------------------------|
B|--1--------1--------0--------2-------------------------------------------------|
G|--0--------2--------0--------0-------------------------------------------------|
D|--2--------4--------2--------0-------------------------------------------------|
A|--3--------X--------2--------2-------------------------------------------------|
E|--3--------3--------0--------3-------------------------------------------------|


VERSE -----------------------------------------------------------------


"softly now in the evening dust, a woman is singing to me....."

REPEAT:
e|--5--------------------5-------------------7-------------------5--------|
B|--5--------------------5-------------------8-------------------7--------|
G|--5--------------------5-------------------7-------------------7--------|
D|--5--------------------5-------------------9-------------------7--------|
A|--7--------------------7-------------------7-------------------5--------|
E|--8--------------------5-------------------X-------------------5--------|


BRIDGE & MIDDLE 8 -----------------------------------------------------------------

"To the melody..."
REPEAT:
e|--0--------------------3-------------------2-------------------2--------|
B|--1--------------------0-------------------0-------------------0--------|
G|--0--------------------0-------------------2-------------------2--------|
D|--2--------------------0-------------------0-------------------1--------|
A|--0--------------------2-------------------0-------------------0--------|
E|--X--------------------3-------------------2-------------------2--------|


CHORUS & VERSE -----------------------------------------------------------------


"singing cucurucu...."

REPEAT:
e|--5--------------------5-------------------7-------------------5--------|
B|--5--------------------5-------------------8-------------------7--------|
G|--5--------------------5-------------------7-------------------7--------|
D|--5--------------------5-------------------9-------------------7--------|
A|--7--------------------7-------------------7-------------------5--------|
E|--8--------------------5-------------------X-------------------5--------|




OUTRO -----------------------------------------------------------------

REPEAT:
e|---5--------0--------5-------0------|
B|---7--------7--------7-------7------|
G|---7--------7--------7-------7------|
D|---7--------7--------7-------7------|
A|---5--------5--------5-------5------|
E|---5--------5--------5-------5------|




| /  slide up
| \  slide down
| h  hammer-on
| p  pull-off
| ~  vibrato
| +  harmonic
| x  Mute note
Tap to rate this tab
 
# A B C D E F G H I J K L M N O P Q R S T U V W X Y Z