Song name
# A B C D E F G H I J K L M N O P Q R S T U V W X Y Z

Nickel Creek - Cant Complain tab

e|-------------------------------------------------|
B|-------------------------------------------------|
G|-2-----2h4--6-----6h7--2-----2h4--6-----2--2-----|   x1
D|----0----------0--0-------0----------0--------0--|
A|-------------------------------------------------|
E|-------------------------------------------------|

e|-------------------------------------------------|
B|-------------------------------------------------|
G|-2-----4--6-----6h7--2-----2h4--6-----2--2-------|  repeat
D|----0--------0----------0----------0--------0----|
A|-------------------------------------------------|
E|-------------------------------------------------|
Tap to rate this tab
# A B C D E F G H I J K L M N O P Q R S T U V W X Y Z