Song name
# A B C D E F G H I J K L M N O P Q R S T U V W X Y Z

Nickel Creek - In The House Of Tom Bombadil tab

Tempo = 240
Steel Guitar

Legend
L - tied note
x - dead note
h - hammer on/pull off
b - bend
s - slide
~ - vibrato
g - ghost note
> - accentuated note
t - trill
M - palm mute
. - staccato
P - popping (bass)
S - slapping (bass)
+ - tapping
W - wide vibrato
< - fade in
w - whammy bar
= - tremolo picking
v - brush up
^ - brush down
V - pick stroke up
n - pick stroke down


E |-----------------------5s---|--7--------5h-3-------------|
B |----------------------------|-----5s-3-----------5-------|
G |----------------------------|-----------------4-----4----|
D |----------------------------|----------------------------|
A |----------------------------|----------------------------|
E |----------------------------|----------------------------|


----------------------------|----------------------------|
--3-------------------------|----------------------------|
-----4s-2--0--2--0----------|-----2h-4-----2h-0----------|
--------------------2--4s---|--0--------0--------4--0----|
----------------------------|----------------------------|
----------------------------|----------------------------|


----------------------------|----------------------------|
----------------------------|----------------------------|
----------------------------|----------------------------|
--2-----0--2h-0-----2--2h---|--0-----0-------------------|
-----------------2----------|-----2-----2--0-----0--2----|
----------------------------|-----------------3----------|


----------------------------|----------------------------|
----------------------------|----------------------------|
----------------------------|--------------0-----2s-4L---|
--------------0-------------|-----------0-----0----------|
----------------------------|-----0h-2-------------------|
--3--2--0-----------0--2h---|--3-------------------------|


--------------------3-------|--5s-7-----7--------7s-10---|
-----3--------3--5-----3----|-----------------0----------|
--4--------0----------------|----------------------------|
----------------------------|----------------------------|
----------------------------|----------------------------|
----------------------------|----------------------------|


--10L10-------10s12-12-10---|--10----12-12h10----10------|
-----------0----------------|-----12----------12----12s--|
----------------------------|----------------------------|
----------------------------|----------------------------|
----------------------------|----------------------------|
----------------------------|----------------------------|


----------------------------|----------------------------|
--10-8----------------------|--------------8--8h-7-------|
--------9-----x-----x--x----|--x--0--7h-9-----------9----|
--------------x-----x--x----|--x-------------------------|
----------------------------|----------------------------|
----------------------------|----------------------------|


----------------------------|----------------------------|-------||
--7-------------------------|----------------------------|-------||
-----9h-7-----7--9h-7-------|--7-------------------------|-------||
-----------9-----------9----|-----9s-7--5--7--5----------|--5----||
----------------------------|--------------------7-------|-------||
----------------------------|----------------------------|-------||
Tap to rate this tab
 
# A B C D E F G H I J K L M N O P Q R S T U V W X Y Z