Guitaretab - guitar tabs
Song name
# A B C D E F G H I J K L M N O P Q R S T U V W X Y Z

Nickel Creek - Reasons Why tab

this is a great song by nickel creek
hope it's accurate :)
comment pls

the capo is on the first fret


e|-----0------0-------------------------------------------------|
b|-----3h5----5p3p0----------3----33---3/7-88---8---------10----|
g|--------------------2--2/4----4-------------7----6/7----------|
D|--------------------------------------------------------------|
A|--------------------------------------------------------------|
E|--------------------------------------------------------------|

e|-----------------------------------------10/12---|
b|--------------10/12--10--------------------------|
g|--------7----------------12---9------------------|
D|-------------------------------------------------|
A|-------------------------------------------------|
E|-------------------------------------------------|

[ Tab from: http://www.guitaretab.com/n/nickel-creek/42055.html ]
e|---12p10----------------------------------------0------0-----0-------------|
b|----------12/10--8/10----12p8--8/10/8--------------------------------------|
g|---------------------------------------9-9------7/9----7-------------------|
D|-------------------------------------------------------------7/9/7---------|
A|---------------------------------------------------------------------10--7-|
E|---------------------------------------------------------------------------|


e|---------------------------------------------------5/7--5--3---------------|
b|------------------------------------------3---3/5------------3h5p3--0------|
g|-------------4------------------0-2--4------------------------------2/4/2--|
D|----4--5- 7---------------0-2-4--------------------------------------------|
A|5h7------------3----5h7p5--------------------------------------------------|
E|---------------------------------------------------------------------------|

e|------0----------0-------------0--------------------------------------|
b|----------------------------------------------------------------------|
g|---2--2/4--------0h4-/2--------2-/4----2p0----------------------------|
D|--------------------------------------------------------2p0h2---------|
A|----------------------------------------------------------------------|
E|----------------------------------------------------------------------|
Related for Reasons Why tab
Advertisement will be closed in 10 seconds