Song name
# A B C D E F G H I J K L M N O P Q R S T U V W X Y Z

Nickel Creek - This Side tab

-------------------------------------------------------------------------------
			     SONG NAME - Band Name
-------------------------------------------------------------------------------
Tabbed by: Sam P.
Email:sam_d_man4christ22@yahoo.com

Tuning:standard

this is mostly the mandolin part, but i mixed in some of the background guitar part so 
can do this on its own and itl sound like the real thing ;)
e|--12------12------12--------12-------12------12-12-----12---------12-------|
B|------12------12-------12--------10-------10------9--------9---------------|
G|---------------------------------------------------------------------------|
D|---------------------------------------------------------------------------|
A|---------------------------------------------------------------------------|
E|---------------------------------------------------------------------------|

e|----------------9--11------------------------------------------------------|
B|-----9---11-12-------------------------------------------------------------|
G|-11------------------------------------------------------------------------|
D|---------------------------------------------------------------------------|
A|---------------------------------------------------------------------------|
E|---------------------------------------------------------------------------|

e|--12------12------12--------12-------12------12-12-----12---------12-------|
B|------12------12-------12--------10-------10------9--------9---------------|
G|---------------------------------------------------------------------------|
D|---------------------------------------------------------------------------|
A|---------------------------------------------------------------------------|
E|---------------------------------------------------------------------------|


e|----------------9--11----12------12----------14----14b---12-11-12--12----12|
B|-----9---11-12---------------12-------12-------------------------------9---|
G|-11------------------------------------------------------------------------|
D|---------------------------------------------------------------------------|
A|---------------------------------------------------------------------------|
E|---------------------------------------------------------------------------|

e|---12--------12-11-9-------------------12-----------14--14b----12-11-12----|
B|-9----9--12-----------12-9---9-12-9--------10--12--------------------------|
G|---------------------------------------------------------------------------|
D|---------------------------------------------------------------------------|
A|---------------------------------------------------------------------------|
E|---------------------------------------------------------------------------|

e|-12----12----12--------12-11-9---------------------------------------------------------|
B|----9------9------9-12---------12-9----------------------------------------------------|
G|---------------------------------------------------------------------------------------|
D|---------------------------------------------------------------------------------------|
A|---------------------------------------------------------------------------------------|
E|---------------------------------------------------------------------------------------|

this is 100% correct unless i made a mistake while tabbing it out :p
| b  bend
| /  slide up
| \  slide down
| h  hammer-on
| p  pull-off
| ~  vibrato
| +  harmonic
| x  Mute note
===============================================================================
Tap to rate this tab
# A B C D E F G H I J K L M N O P Q R S T U V W X Y Z