Song name
# A B C D E F G H I J K L M N O P Q R S T U V W X Y Z

Nickel Creek - House Carpenter tab

tabbed by Eric Frenkil
ericfrenkilsays@aol.com

e|----------|---------|12-------------------|
B|12/14-14v-|12-12h14-|---14p12h14-12-14----|
G|----------|---------|------------------11-|
D|----------|---------|---------------------|
A|----------|---------|---------------------|
E|----------|---------|---------------------|

e|----------|---14------|---------12/14-----|
B|12/14-14v-|12---12/14-|12-12/14-------14v-|
G|----------|-----------|-------------------|
D|----------|-----------|-------------------|
A|----------|-----------|-------------------|
E|----------|-----------|-------------------|

e|-----------|-------------------------------|
B|-----------|12-----------10-10/12-12/14----|
G|9-11-11/14-|---9/11-9/11----------------11-|
D|-----------|-------------------------------|
A|-----------|-------------------------------|
E|-----------|-------------------------------|

e|---------------|---------12h14p12-|--------------|
B|---10-12-10/12-|---10-12----------|/14-12-10-----|
G|11-------------|11----------------|-----------11-|
D|---------------|------------------|-----------11-|
A|---------------|------------------|-----------9--|
E|---------------|------------------|--------------|
Tap to rate this tab
# A B C D E F G H I J K L M N O P Q R S T U V W X Y Z