Song name
# A B C D E F G H I J K L M N O P Q R S T U V W X Y Z

Nickel Creek - Anthony tab

Hi. This song is for my little C-section joey (baby voice)

-standard tuning

    B-flat
E---------------------------|
A-----8--------8------------|
D-8-------8-----------------|
G---7---7---7---------------|
B---6---6---6----7s8-11-8-7-|
E---6---6---6---------------|

  "he can't love me"

E---------------------|
A---------------------|
D-7---------7---------|
G---5--5--5---5--5--5-|
B---6-----6---6-----6-|
E---5-----5---5-----5-|

  "just before he ran (humming)"

     B-flat 2x           Gm 8x         D 1x
E---------------------------------------------x-5-5-5-|
A-----8--------8------5-------5------5--------x-6-6-6-|
D-8-------8-------5-------5------------7-7-7--x-5-5-5-|
G---7---7---7-------3---3---3---3------7---7--x-7-7-7-|
B---6---6---6-------3---3---3---3------7---7----------|
E---6---6---6-------3---3---3---3---------------------|

                                  Thats it. Have fun. -garett...my joey
Tap to rate this tab
 
# A B C D E F G H I J K L M N O P Q R S T U V W X Y Z