Guitaretab - guitar tabs
Song name
# A B C D E F G H I J K L M N O P Q R S T U V W X Y Z

Nickel Creek - Out Of The Woods tab

-----------------------------------------------------------------------------
		OUT OF THE WOODS (Guitar Solo)  Nickel Creek
-----------------------------------------------------------------------------
Tabbed by: ctshiner
Email: ckittred@indiana.edu

Tuning: Standard
[ Tab from: http://www.guitaretab.com/n/nickel-creek/79681.html ]
e|------------0-0-h2-2/5---2p0---0~~~~~------0---0h2--2p0---0---------------|
B|------0-2-3------------------3-3~~~~~---3----3----------3---3~~~~~--------|
G|--0-2--------------------------2~~~~~-------------------------------------|
D|--------------------------------------------------------------------------|
A|--------------------------------------------------------------------------|
E|--------------------------------------------------------------------------|

e|----0-2-3-5/7/9---10p9---------9---11---11/13\11-9-5h7~~7p5\3-5-3~~~~~~~~~|
B|--3--------------------10--------9----9-----------------------------------|
G|--------------------------9/11------------------------------------0~~~~~~~|
D|--------------------------------------------------------------------0~~~~~|
A|--------------------------------------------------------------------------|
E|----------------------------------------------------------------------3~~~|

Related for Out Of The Woods tab